ISO-10303-21;
HEADER;
FILE_DESCRIPTION ((), '1');
FILE_NAME ('C:\\DDrive\\ROB\\Rob\\Documents\\ROB\\Customers & Projects\\M\\MAFE\\TOOL STEP FILES\\MFBN\\MFPB2001.STP', '2020-07-08T09:42:10', ('Unknown'), ('M A Ford'), 'OneCNC-XR8 Mill 3D Expert', 'OneCNC-XR8 Mill 3D Expert', '');
FILE_SCHEMA (('CONFIG_CONTROL_DESIGN'));
ENDSEC;

DATA;
#1 = CARTESIAN_POINT ('', (-139.75, 10., -2.4492935982947E-15));
#2 = VERTEX_POINT ('', #1);
#3 = CARTESIAN_POINT ('', (-140., 9.75, -2.38806125833734E-15));
#4 = VERTEX_POINT ('', #3);
#5 = CARTESIAN_POINT ('', (-139.75, 10., -2.4492935982947E-15));
#6 = CARTESIAN_POINT ('', (-139.833333333333, 9.9166666666667, -2.42888281830892E-15));
#7 = CARTESIAN_POINT ('', (-139.916666666667, 9.83333333333331, -2.40847203832312E-15));
#8 = CARTESIAN_POINT ('', (-140., 9.75, -2.38806125833734E-15));
#9 = B_SPLINE_CURVE_WITH_KNOTS ('', 3, (#5, #6, #7, #8), .UNSPECIFIED., .F., .U., (4, 4), (0., 1.), .UNSPECIFIED.);
#10 = EDGE_CURVE ('', #2, #4, #9, .T.);
#11 = ORIENTED_EDGE ('', *, *, #10, .F.);
#12 = CARTESIAN_POINT ('', (-139.75, 10., -2.4492935982947E-15));
#13 = CARTESIAN_POINT ('', (-139.75, 9.99999999999998, 40.));
#14 = CARTESIAN_POINT ('', (-139.75, -30., 20.));
#15 = CARTESIAN_POINT ('', (-139.75, -30., -20.));
#16 = CARTESIAN_POINT ('', (-139.75, 10., -40.));
#17 = CARTESIAN_POINT ('', (-139.75, 10., -2.4492935982947E-15));
#18 = (
   BOUNDED_CURVE ()
   B_SPLINE_CURVE (5, (#12, #13, #14, #15, #16, #17), .UNSPECIFIED., .T., .U.)
   B_SPLINE_CURVE_WITH_KNOTS ((6, 6), (0., 1.), .UNSPECIFIED.)
   CURVE ()
   GEOMETRIC_REPRESENTATION_ITEM ()
   RATIONAL_B_SPLINE_CURVE ((5., 1., 1., 1., 1., 5.))
   REPRESENTATION_ITEM ('')
);
#19 = EDGE_CURVE ('', #2, #2, #18, .T.);
#20 = ORIENTED_EDGE ('', *, *, #19, .T.);
#21 = ORIENTED_EDGE ('', *, *, #10, .T.);
#22 = CARTESIAN_POINT ('', (-140., 9.75, -2.38806125833734E-15));
#23 = CARTESIAN_POINT ('', (-140., 9.74999999999998, 39.));
#24 = CARTESIAN_POINT ('', (-140., -29.25, 19.5));
#25 = CARTESIAN_POINT ('', (-140., -29.25, -19.5));
#26 = CARTESIAN_POINT ('', (-140., 9.75000000000002, -39.));
#27 = CARTESIAN_POINT ('', (-140., 9.75, -2.38806125833734E-15));
#28 = (
   BOUNDED_CURVE ()
   B_SPLINE_CURVE (5, (#22, #23, #24, #25, #26, #27), .UNSPECIFIED., .T., .U.)
   B_SPLINE_CURVE_WITH_KNOTS ((6, 6), (0., 1.), .UNSPECIFIED.)
   CURVE ()
   GEOMETRIC_REPRESENTATION_ITEM ()
   RATIONAL_B_SPLINE_CURVE ((5., 1., 1., 1., 1., 5.))
   REPRESENTATION_ITEM ('')
);
#29 = EDGE_CURVE ('', #4, #4, #28, .T.);
#30 = ORIENTED_EDGE ('', *, *, #29, .F.);
#31 = EDGE_LOOP ('', (#11, #20, #21, #30));
#32 = FACE_OUTER_BOUND ('', #31, .F.);
#33 = CARTESIAN_POINT ('', (-139.75, 10., -2.4492935982947E-15));
#34 = CARTESIAN_POINT ('', (-139.833333333333, 9.9166666666667, -2.42888281830892E-15));
#35 = CARTESIAN_POINT ('', (-139.916666666667, 9.83333333333331, -2.40847203832312E-15));
#36 = CARTESIAN_POINT ('', (-140., 9.75, -2.38806125833734E-15));
#37 = CARTESIAN_POINT ('', (-139.75, 9.99999999999998, 40.));
#38 = CARTESIAN_POINT ('', (-139.833333333333, 9.91666666666667, 39.6666666666668));
#39 = CARTESIAN_POINT ('', (-139.916666666667, 9.83333333333329, 39.3333333333332));
#40 = CARTESIAN_POINT ('', (-140., 9.74999999999998, 39.));
#41 = CARTESIAN_POINT ('', (-139.75, -30., 20.));
#42 = CARTESIAN_POINT ('', (-139.833333333333, -29.7500000000001, 19.8333333333334));
#43 = CARTESIAN_POINT ('', (-139.916666666667, -29.4999999999999, 19.6666666666666));
#44 = CARTESIAN_POINT ('', (-140., -29.25, 19.5));
#45 = CARTESIAN_POINT ('', (-139.75, -30., -20.));
#46 = CARTESIAN_POINT ('', (-139.833333333333, -29.7500000000001, -19.8333333333334));
#47 = CARTESIAN_POINT ('', (-139.916666666667, -29.4999999999999, -19.6666666666666));
#48 = CARTESIAN_POINT ('', (-140., -29.25, -19.5));
#49 = CARTESIAN_POINT ('', (-139.75, 10., -40.));
#50 = CARTESIAN_POINT ('', (-139.833333333333, 9.91666666666672, -39.6666666666668));
#51 = CARTESIAN_POINT ('', (-139.916666666667, 9.83333333333334, -39.3333333333332));
#52 = CARTESIAN_POINT ('', (-140., 9.75000000000002, -39.));
#53 = CARTESIAN_POINT ('', (-139.75, 10., -2.4492935982947E-15));
#54 = CARTESIAN_POINT ('', (-139.833333333333, 9.9166666666667, -2.42888281830892E-15));
#55 = CARTESIAN_POINT ('', (-139.916666666667, 9.83333333333331, -2.40847203832312E-15));
#56 = CARTESIAN_POINT ('', (-140., 9.75, -2.38806125833734E-15));
#57 = (
   BOUNDED_SURFACE ()
   B_SPLINE_SURFACE (5, 3, ((#33, #34, #35, #36), (#37, #38, #39, #40), (#41, #42, #43, #44), (#45, #46, #47, #48), (#49, #50, #51, #52), (#53, #54, #55, #56)), .UNSPECIFIED., .T., .F., .U.)
   B_SPLINE_SURFACE_WITH_KNOTS ((6, 6), (4, 4), (0., 1.), (0., 1.), .UNSPECIFIED.)
   SURFACE ()
   GEOMETRIC_REPRESENTATION_ITEM ()
   RATIONAL_B_SPLINE_SURFACE (((5., 5., 5., 5.), (1., 1., 1., 1.), (1., 1., 1., 1.), (1., 1., 1., 1.), (1., 1., 1., 1.), (5., 5., 5., 5.)))
   REPRESENTATION_ITEM ('')
);
#58 = ADVANCED_FACE ('', (#32), #57, .F.);
#59 = CARTESIAN_POINT ('', (-140., 8.57252759403147E-15, -8.57252759403147E-15));
#60 = VERTEX_POINT ('', #59);
#61 = CARTESIAN_POINT ('', (-140., 9.75, -2.38806125833734E-15));
#62 = CARTESIAN_POINT ('', (-140., 8.57252759403147E-15, -8.57252759403147E-15));
#63 = B_SPLINE_CURVE_WITH_KNOTS ('', 1, (#61, #62), .UNSPECIFIED., .F., .U., (2, 2), (0., 1.), .UNSPECIFIED.);
#64 = EDGE_CURVE ('', #4, #60, #63, .T.);
#65 = ORIENTED_EDGE ('', *, *, #64, .F.);
#66 = ORIENTED_EDGE ('', *, *, #29, .T.);
#67 = ORIENTED_EDGE ('', *, *, #64, .T.);
#68 = EDGE_LOOP ('', (#65, #66, #67));
#69 = FACE_OUTER_BOUND ('', #68, .F.);
#70 = CARTESIAN_POINT ('', (-140., 9.75, -2.38806125833734E-15));
#71 = CARTESIAN_POINT ('', (-140., 8.57252759403147E-15, -8.57252759403147E-15));
#72 = CARTESIAN_POINT ('', (-140., 9.74999999999998, 39.));
#73 = CARTESIAN_POINT ('', (-140., 8.57252759403147E-15, -8.57252759403147E-15));
#74 = CARTESIAN_POINT ('', (-140., -29.25, 19.5));
#75 = CARTESIAN_POINT ('', (-140., 8.57252759403147E-15, -8.57252759403147E-15));
#76 = CARTESIAN_POINT ('', (-140., -29.25, -19.5));
#77 = CARTESIAN_POINT ('', (-140., 8.57252759403147E-15, -8.57252759403147E-15));
#78 = CARTESIAN_POINT ('', (-140., 9.75000000000002, -39.));
#79 = CARTESIAN_POINT ('', (-140., 8.57252759403147E-15, -8.57252759403147E-15));
#80 = CARTESIAN_POINT ('', (-140., 9.75, -2.38806125833734E-15));
#81 = CARTESIAN_POINT ('', (-140., 8.57252759403147E-15, -8.57252759403147E-15));
#82 = (
   BOUNDED_SURFACE ()
   B_SPLINE_SURFACE (5, 1, ((#70, #71), (#72, #73), (#74, #75), (#76, #77), (#78, #79), (#80, #81)), .UNSPECIFIED., .T., .F., .U.)
   B_SPLINE_SURFACE_WITH_KNOTS ((6, 6), (2, 2), (0., 1.), (0., 1.), .UNSPECIFIED.)
   SURFACE ()
   GEOMETRIC_REPRESENTATION_ITEM ()
   RATIONAL_B_SPLINE_SURFACE (((5., 5.), (1., 1.), (1., 1.), (1., 1.), (1., 1.), (5., 5.)))
   REPRESENTATION_ITEM ('')
);
#83 = ADVANCED_FACE ('', (#69), #82, .F.);
#84 = CARTESIAN_POINT ('', (6.12323399573677E-16, 10., -2.44929359829471E-15));
#85 = VERTEX_POINT ('', #84);
#86 = CARTESIAN_POINT ('', (1.97215226305253E-31, 10., -2.44929359829471E-15));
#87 = CARTESIAN_POINT ('', (-46.5833333333333, 10., -2.44929359829471E-15));
#88 = CARTESIAN_POINT ('', (-93.1666666666669, 10., -2.44929359829471E-15));
#89 = CARTESIAN_POINT ('', (-139.75, 10., -2.4492935982947E-15));
#90 = B_SPLINE_CURVE_WITH_KNOTS ('', 3, (#86, #87, #88, #89), .UNSPECIFIED., .F., .U., (4, 4), (0., 1.), .UNSPECIFIED.);
#91 = EDGE_CURVE ('', #85, #2, #90, .T.);
#92 = ORIENTED_EDGE ('', *, *, #91, .F.);
#93 = CARTESIAN_POINT ('', (6.12323399573677E-16, 10., -2.44929359829471E-15));
#94 = CARTESIAN_POINT ('', (-1.83697019872103E-15, 10., 40.));
#95 = CARTESIAN_POINT ('', (-3.06161699786838E-15, -30., 20.));
#96 = CARTESIAN_POINT ('', (-6.12323399573677E-16, -30., -20.));
#97 = CARTESIAN_POINT ('', (3.06161699786838E-15, 9.99999999999999, -40.));
#98 = CARTESIAN_POINT ('', (6.12323399573677E-16, 10., -2.44929359829471E-15));
#99 = (
   BOUNDED_CURVE ()
   B_SPLINE_CURVE (5, (#93, #94, #95, #96, #97, #98), .UNSPECIFIED., .T., .U.)
   B_SPLINE_CURVE_WITH_KNOTS ((6, 6), (0., 1.), .UNSPECIFIED.)
   CURVE ()
   GEOMETRIC_REPRESENTATION_ITEM ()
   RATIONAL_B_SPLINE_CURVE ((5., 1., 1., 1., 1., 5.))
   REPRESENTATION_ITEM ('')
);
#100 = EDGE_CURVE ('', #85, #85, #99, .T.);
#101 = ORIENTED_EDGE ('', *, *, #100, .T.);
#102 = ORIENTED_EDGE ('', *, *, #91, .T.);
#103 = ORIENTED_EDGE ('', *, *, #19, .F.);
#104 = EDGE_LOOP ('', (#92, #101, #102, #103));
#105 = FACE_OUTER_BOUND ('', #104, .F.);
#106 = CARTESIAN_POINT ('', (1.97215226305253E-31, 10., -2.44929359829471E-15));
#107 = CARTESIAN_POINT ('', (-46.5833333333333, 10., -2.44929359829471E-15));
#108 = CARTESIAN_POINT ('', (-93.1666666666669, 10., -2.44929359829471E-15));
#109 = CARTESIAN_POINT ('', (-139.75, 10., -2.4492935982947E-15));
#110 = CARTESIAN_POINT ('', (-2.44929359829471E-15, 10., 40.));
#111 = CARTESIAN_POINT ('', (-46.5833333333333, 10., 40.));
#112 = CARTESIAN_POINT ('', (-93.1666666666669, 9.99999999999999, 40.));
#113 = CARTESIAN_POINT ('', (-139.75, 9.99999999999998, 40.));
#114 = CARTESIAN_POINT ('', (-3.67394039744206E-15, -30., 20.));
#115 = CARTESIAN_POINT ('', (-46.5833333333333, -30., 20.));
#116 = CARTESIAN_POINT ('', (-93.1666666666669, -30., 20.));
#117 = CARTESIAN_POINT ('', (-139.75, -30., 20.));
#118 = CARTESIAN_POINT ('', (-1.22464679914735E-15, -30., -20.));
#119 = CARTESIAN_POINT ('', (-46.5833333333333, -30., -20.));
#120 = CARTESIAN_POINT ('', (-93.1666666666669, -30., -20.));
#121 = CARTESIAN_POINT ('', (-139.75, -30., -20.));
#122 = CARTESIAN_POINT ('', (2.44929359829471E-15, 9.99999999999999, -40.));
#123 = CARTESIAN_POINT ('', (-46.5833333333333, 10., -40.));
#124 = CARTESIAN_POINT ('', (-93.1666666666669, 10., -40.));
#125 = CARTESIAN_POINT ('', (-139.75, 10., -40.));
#126 = CARTESIAN_POINT ('', (1.97215226305253E-31, 10., -2.44929359829471E-15));
#127 = CARTESIAN_POINT ('', (-46.5833333333333, 10., -2.44929359829471E-15));
#128 = CARTESIAN_POINT ('', (-93.1666666666669, 10., -2.44929359829471E-15));
#129 = CARTESIAN_POINT ('', (-139.75, 10., -2.4492935982947E-15));
#130 = (
   BOUNDED_SURFACE ()
   B_SPLINE_SURFACE (5, 3, ((#106, #107, #108, #109), (#110, #111, #112, #113), (#114, #115, #116, #117), (#118, #119, #120, #121), (#122, #123, #124, #125), (#126, #127, #128, #129)), .UNSPECIFIED., .T., .F., .U.)
   B_SPLINE_SURFACE_WITH_KNOTS ((6, 6), (4, 4), (0., 1.), (0., 1.), .UNSPECIFIED.)
   SURFACE ()
   GEOMETRIC_REPRESENTATION_ITEM ()
   RATIONAL_B_SPLINE_SURFACE (((5., 5., 5., 5.), (1., 1., 1., 1.), (1., 1., 1., 1.), (1., 1., 1., 1.), (1., 1., 1., 1.), (5., 5., 5., 5.)))
   REPRESENTATION_ITEM ('')
);
#131 = ADVANCED_FACE ('', (#105), #130, .F.);
#132 = CARTESIAN_POINT ('', (10., -6.12323399573677E-16, 6.12323399573677E-16));
#133 = VERTEX_POINT ('', #132);
#134 = CARTESIAN_POINT ('', (10., -6.12323399573677E-16, 6.12323399573677E-16));
#135 = CARTESIAN_POINT ('', (10., 1.09255377779727, -2.67598497375154E-16));
#136 = CARTESIAN_POINT ('', (9.7082903088691, 2.85228254681855, -6.98607738245041E-16));
#137 = CARTESIAN_POINT ('', (8.68837636691793, 5.08847905782424, -1.24631791813856E-15));
#138 = CARTESIAN_POINT ('', (7.27521810352582, 7.02318949690049, -1.7201853074369E-15));
#139 = CARTESIAN_POINT ('', (5.40389680820553, 8.54451648717592, -2.09280295325635E-15));
#140 = CARTESIAN_POINT ('', (2.85228254681854, 9.70829030886908, -2.37784533038996E-15));
#141 = CARTESIAN_POINT ('', (1.09255377779727, 10., -2.44929359829471E-15));
#142 = CARTESIAN_POINT ('', (6.12323399573677E-16, 10., -2.44929359829471E-15));
#143 = B_SPLINE_CURVE_WITH_KNOTS ('', 3, (#134, #135, #136, #137, #138, #139, #140, #141, #142), .UNSPECIFIED., .F., .U., (4, 1, 1, 1, 1, 1, 4), (0., 0.208662401196191, 0.33617370428258, 0.467060336615637, 0.66382629571742, 0.791337598803809, 1.), .UNSPECIFIED.);
#144 = EDGE_CURVE ('', #133, #85, #143, .T.);
#145 = ORIENTED_EDGE ('', *, *, #144, .F.);
#146 = ORIENTED_EDGE ('', *, *, #144, .T.);
#147 = ORIENTED_EDGE ('', *, *, #100, .F.);
#148 = EDGE_LOOP ('', (#145, #146, #147));
#149 = FACE_OUTER_BOUND ('', #148, .F.);
#150 = CARTESIAN_POINT ('', (10., -6.12323399573677E-16, 6.12323399573677E-16));
#151 = CARTESIAN_POINT ('', (10., 1.09255377779727, -2.67598497375154E-16));
#152 = CARTESIAN_POINT ('', (9.7082903088691, 2.85228254681855, -6.98607738245041E-16));
#153 = CARTESIAN_POINT ('', (8.68837636691793, 5.08847905782424, -1.24631791813856E-15));
#154 = CARTESIAN_POINT ('', (7.27521810352582, 7.02318949690049, -1.7201853074369E-15));
#155 = CARTESIAN_POINT ('', (5.40389680820553, 8.54451648717592, -2.09280295325635E-15));
#156 = CARTESIAN_POINT ('', (2.85228254681854, 9.70829030886908, -2.37784533038996E-15));
#157 = CARTESIAN_POINT ('', (1.09255377779727, 10., -2.44929359829471E-15));
#158 = CARTESIAN_POINT ('', (6.12323399573677E-16, 10., -2.44929359829471E-15));
#159 = CARTESIAN_POINT ('', (10., -6.12323399573677E-16, 6.12323399573677E-16));
#160 = CARTESIAN_POINT ('', (10., 1.09255377779727, 4.37021511118907));
#161 = CARTESIAN_POINT ('', (9.7082903088691, 2.85228254681856, 11.4091301872742));
#162 = CARTESIAN_POINT ('', (8.68837636691793, 5.08847905782425, 20.353916231297));
#163 = CARTESIAN_POINT ('', (7.27521810352582, 7.02318949690049, 28.0927579876019));
#164 = CARTESIAN_POINT ('', (5.40389680820552, 8.54451648717592, 34.1780659487037));
#165 = CARTESIAN_POINT ('', (2.85228254681854, 9.70829030886909, 38.8331612354763));
#166 = CARTESIAN_POINT ('', (1.09255377779727, 10., 40.));
#167 = CARTESIAN_POINT ('', (-1.83697019872103E-15, 10., 40.));
#168 = CARTESIAN_POINT ('', (10., -6.12323399573677E-16, 6.12323399573677E-16));
#169 = CARTESIAN_POINT ('', (10., -3.2776613333918, 2.18510755559454));
#170 = CARTESIAN_POINT ('', (9.7082903088691, -8.55684764045566, 5.70456509363711));
#171 = CARTESIAN_POINT ('', (8.68837636691793, -15.2654371734727, 10.1769581156485));
#172 = CARTESIAN_POINT ('', (7.27521810352582, -21.0695684907015, 14.046378993801));
#173 = CARTESIAN_POINT ('', (5.40389680820552, -25.6335494615277, 17.0890329743518));
#174 = CARTESIAN_POINT ('', (2.85228254681854, -29.1248709266072, 19.4165806177382));
#175 = CARTESIAN_POINT ('', (1.09255377779726, -30., 20.));
#176 = CARTESIAN_POINT ('', (-3.06161699786838E-15, -30., 20.));
#177 = CARTESIAN_POINT ('', (10., -6.12323399573677E-16, 6.12323399573677E-16));
#178 = CARTESIAN_POINT ('', (10., -3.2776613333918, -2.18510755559453));
#179 = CARTESIAN_POINT ('', (9.7082903088691, -8.55684764045566, -5.7045650936371));
#180 = CARTESIAN_POINT ('', (8.68837636691793, -15.2654371734727, -10.1769581156485));
#181 = CARTESIAN_POINT ('', (7.27521810352582, -21.0695684907015, -14.046378993801));
#182 = CARTESIAN_POINT ('', (5.40389680820553, -25.6335494615277, -17.0890329743518));
#183 = CARTESIAN_POINT ('', (2.85228254681854, -29.1248709266073, -19.4165806177382));
#184 = CARTESIAN_POINT ('', (1.09255377779727, -30., -20.));
#185 = CARTESIAN_POINT ('', (-6.12323399573677E-16, -30., -20.));
#186 = CARTESIAN_POINT ('', (10., -6.12323399573677E-16, 6.12323399573677E-16));
#187 = CARTESIAN_POINT ('', (10., 1.09255377779726, -4.37021511118907));
#188 = CARTESIAN_POINT ('', (9.7082903088691, 2.85228254681855, -11.4091301872742));
#189 = CARTESIAN_POINT ('', (8.68837636691793, 5.08847905782423, -20.353916231297));
#190 = CARTESIAN_POINT ('', (7.27521810352583, 7.02318949690048, -28.0927579876019));
#191 = CARTESIAN_POINT ('', (5.40389680820553, 8.54451648717591, -34.1780659487037));
#192 = CARTESIAN_POINT ('', (2.85228254681855, 9.70829030886907, -38.8331612354763));
#193 = CARTESIAN_POINT ('', (1.09255377779727, 9.99999999999999, -40.));
#194 = CARTESIAN_POINT ('', (3.06161699786838E-15, 9.99999999999999, -40.));
#195 = CARTESIAN_POINT ('', (10., -6.12323399573677E-16, 6.12323399573677E-16));
#196 = CARTESIAN_POINT ('', (10., 1.09255377779727, -2.67598497375154E-16));
#197 = CARTESIAN_POINT ('', (9.7082903088691, 2.85228254681855, -6.98607738245041E-16));
#198 = CARTESIAN_POINT ('', (8.68837636691793, 5.08847905782424, -1.24631791813856E-15));
#199 = CARTESIAN_POINT ('', (7.27521810352582, 7.02318949690049, -1.7201853074369E-15));
#200 = CARTESIAN_POINT ('', (5.40389680820553, 8.54451648717592, -2.09280295325635E-15));
#201 = CARTESIAN_POINT ('', (2.85228254681854, 9.70829030886908, -2.37784533038996E-15));
#202 = CARTESIAN_POINT ('', (1.09255377779727, 10., -2.44929359829471E-15));
#203 = CARTESIAN_POINT ('', (6.12323399573677E-16, 10., -2.44929359829471E-15));
#204 = (
   BOUNDED_SURFACE ()
   B_SPLINE_SURFACE (5, 3, ((#150, #151, #152, #153, #154, #155, #156, #157, #158), (#159, #160, #161, #162, #163, #164, #165, #166, #167), (#168, #169, #170, #171, #172, #173, #174, #175, #176), (#177, #178, #179, #180, #181, #182, #183, #184, #185), (#186, #187, #188, #189, #190, #191, #192, #193, #194), (#195, #196, #197, #198, #199, #200, #201, #202, #203)), .UNSPECIFIED., .T., .F., .U.)
   B_SPLINE_SURFACE_WITH_KNOTS ((6, 6), (4, 1, 1, 1, 1, 1, 4), (0., 1.), (0., 0.208662401196191, 0.33617370428258, 0.467060336615637, 0.66382629571742, 0.791337598803809, 1.), .UNSPECIFIED.)
   SURFACE ()
   GEOMETRIC_REPRESENTATION_ITEM ()
   RATIONAL_B_SPLINE_SURFACE (((5., 5., 5., 5., 5., 5., 5., 5., 5.), (1., 1., 1., 1., 1., 1., 1., 1., 1.), (1., 1., 1., 1., 1., 1., 1., 1., 1.), (1., 1., 1., 1., 1., 1., 1., 1., 1.), (1., 1., 1., 1., 1., 1., 1., 1., 1.), (5., 5., 5., 5., 5., 5., 5., 5., 5.)))
   REPRESENTATION_ITEM ('')
);
#205 = ADVANCED_FACE ('', (#149), #204, .F.);
#206 = CLOSED_SHELL ('', (#58, #83, #131, #205));
#207 = MANIFOLD_SOLID_BREP ('', #206);
#208 = (
   LENGTH_UNIT ()
   NAMED_UNIT (*)
   SI_UNIT (.MILLI., .METRE.)
);
#209 = (
   NAMED_UNIT (*)
   SI_UNIT ($, .STERADIAN.)
   SOLID_ANGLE_UNIT ()
);
#210 = (
   NAMED_UNIT (*)
   SI_UNIT ($, .RADIAN.)
   PLANE_ANGLE_UNIT ()
);
#211 = UNCERTAINTY_MEASURE_WITH_UNIT (LENGTH_MEASURE(0.001), #208, 'DISTANCE_ACCURACY_VALUE', '');
#212 = (
   GEOMETRIC_REPRESENTATION_CONTEXT (3)
   GLOBAL_UNCERTAINTY_ASSIGNED_CONTEXT ((#211))
   GLOBAL_UNIT_ASSIGNED_CONTEXT ((#208, #209, #210))
   REPRESENTATION_CONTEXT ('', '3D')
);
#213 = SHAPE_REPRESENTATION ('', (), #212);
#214 = APPLICATION_CONTEXT ('configuration controlled 3D designs of mechanical parts and assemblies');
#215 = APPLICATION_PROTOCOL_DEFINITION ('International Standard', 'config_control_design', 1997, #214);
#216 = MECHANICAL_CONTEXT ('', #214, 'mechanical');
#217 = PRODUCT ('', '', '', (#216));
#218 = PERSON_AND_ORGANIZATION_ROLE ('design_owner');
#219 = PERSON ('', '', $, $, $, $);
#220 = ORGANIZATION ($, '', '');
#221 = PERSON_AND_ORGANIZATION (#219, #220);
#222 = CC_DESIGN_PERSON_AND_ORGANIZATION_ASSIGNMENT (#221, #218, (#217));
#223 = PRODUCT_RELATED_PRODUCT_CATEGORY ('detail', $, (#217));
#224 = PRODUCT_DEFINITION_FORMATION_WITH_SPECIFIED_SOURCE ('', '', #217, .NOT_KNOWN.);
#225 = APPROVAL_STATUS ('approved');
#226 = APPROVAL (#225, '');
#227 = CALENDAR_DATE (2020, 8, 7);
#228 = COORDINATED_UNIVERSAL_TIME_OFFSET (0, $, .AHEAD.);
#229 = LOCAL_TIME (9, 42, 10., #228);
#230 = DATE_AND_TIME (#227, #229);
#231 = APPROVAL_DATE_TIME (#230, #226);
#232 = APPROVAL_ROLE ('');
#233 = PERSON ('', '', $, $, $, $);
#234 = ORGANIZATION ($, '', '');
#235 = PERSON_AND_ORGANIZATION (#233, #234);
#236 = APPROVAL_PERSON_ORGANIZATION (#235, #226, #232);
#237 = CC_DESIGN_APPROVAL (#226, (#224));
#238 = PERSON_AND_ORGANIZATION_ROLE ('creator');
#239 = PERSON ('', '', $, $, $, $);
#240 = ORGANIZATION ($, '', '');
#241 = PERSON_AND_ORGANIZATION (#239, #240);
#242 = CC_DESIGN_PERSON_AND_ORGANIZATION_ASSIGNMENT (#241, #238, (#224));
#243 = PERSON_AND_ORGANIZATION_ROLE ('part_supplier');
#244 = PERSON ('', '', $, $, $, $);
#245 = ORGANIZATION ($, '', '');
#246 = PERSON_AND_ORGANIZATION (#244, #245);
#247 = CC_DESIGN_PERSON_AND_ORGANIZATION_ASSIGNMENT (#246, #243, (#224));
#248 = SECURITY_CLASSIFICATION_LEVEL ('unclassified');
#249 = SECURITY_CLASSIFICATION ('', '', #248);
#250 = APPROVAL_STATUS ('approved');
#251 = APPROVAL (#250, '');
#252 = CALENDAR_DATE (2020, 8, 7);
#253 = COORDINATED_UNIVERSAL_TIME_OFFSET (0, $, .AHEAD.);
#254 = LOCAL_TIME (9, 42, 10., #253);
#255 = DATE_AND_TIME (#252, #254);
#256 = APPROVAL_DATE_TIME (#255, #251);
#257 = APPROVAL_ROLE ('');
#258 = PERSON ('', '', $, $, $, $);
#259 = ORGANIZATION ($, '', '');
#260 = PERSON_AND_ORGANIZATION (#258, #259);
#261 = APPROVAL_PERSON_ORGANIZATION (#260, #251, #257);
#262 = CC_DESIGN_APPROVAL (#251, (#249));
#263 = DATE_TIME_ROLE ('classification_date');
#264 = CALENDAR_DATE (2020, 8, 7);
#265 = COORDINATED_UNIVERSAL_TIME_OFFSET (0, $, .AHEAD.);
#266 = LOCAL_TIME (9, 42, 10., #265);
#267 = DATE_AND_TIME (#264, #266);
#268 = CC_DESIGN_DATE_AND_TIME_ASSIGNMENT (#267, #263, (#249));
#269 = PERSON_AND_ORGANIZATION_ROLE ('classification_officer');
#270 = PERSON ('', '', $, $, $, $);
#271 = ORGANIZATION ($, '', '');
#272 = PERSON_AND_ORGANIZATION (#270, #271);
#273 = CC_DESIGN_PERSON_AND_ORGANIZATION_ASSIGNMENT (#272, #269, (#249));
#274 = CC_DESIGN_SECURITY_CLASSIFICATION (#249, (#224));
#275 = DESIGN_CONTEXT ('', #214, 'design');
#276 = PRODUCT_DEFINITION ('', '', #224, #275);
#277 = APPROVAL_STATUS ('approved');
#278 = APPROVAL (#277, '');
#279 = CALENDAR_DATE (2020, 8, 7);
#280 = COORDINATED_UNIVERSAL_TIME_OFFSET (0, $, .AHEAD.);
#281 = LOCAL_TIME (9, 42, 10., #280);
#282 = DATE_AND_TIME (#279, #281);
#283 = APPROVAL_DATE_TIME (#282, #278);
#284 = APPROVAL_ROLE ('');
#285 = PERSON ('', '', $, $, $, $);
#286 = ORGANIZATION ($, '', '');
#287 = PERSON_AND_ORGANIZATION (#285, #286);
#288 = APPROVAL_PERSON_ORGANIZATION (#287, #278, #284);
#289 = CC_DESIGN_APPROVAL (#278, (#276));
#290 = DATE_TIME_ROLE ('creation_date');
#291 = CALENDAR_DATE (2020, 8, 7);
#292 = COORDINATED_UNIVERSAL_TIME_OFFSET (0, $, .AHEAD.);
#293 = LOCAL_TIME (9, 42, 10., #292);
#294 = DATE_AND_TIME (#291, #293);
#295 = CC_DESIGN_DATE_AND_TIME_ASSIGNMENT (#294, #290, (#276));
#296 = PERSON_AND_ORGANIZATION_ROLE ('creator');
#297 = PERSON ('', '', $, $, $, $);
#298 = ORGANIZATION ($, '', '');
#299 = PERSON_AND_ORGANIZATION (#297, #298);
#300 = CC_DESIGN_PERSON_AND_ORGANIZATION_ASSIGNMENT (#299, #296, (#276));
#301 = PRODUCT_DEFINITION_SHAPE ('', '', #276);
#302 = SHAPE_DEFINITION_REPRESENTATION (#301, #213);
#303 = SHAPE_REPRESENTATION_RELATIONSHIP ('', '', #213, #304);
#304 = ADVANCED_BREP_SHAPE_REPRESENTATION ('', (#207), #212);
ENDSEC;
END-ISO-10303-21;
