ISO-10303-21;
HEADER;
FILE_DESCRIPTION ((), '1');
FILE_NAME ('C:\\Users\\kevin\\MFB Range\\MFTB0502.STP', '2020-07-09T12:41:56', ('Unknown'), ('mafordeurope'), 'OneCNC-XR7 Mill 3D Expert', 'OneCNC-XR7 Mill 3D Expert', '');
FILE_SCHEMA (('CONFIG_CONTROL_DESIGN'));
ENDSEC;

DATA;
#1 = CARTESIAN_POINT ('', (-2.39095153158666, 2.49762055395464, -6.11740603377039E-16));
#2 = VERTEX_POINT ('', #1);
#3 = CARTESIAN_POINT ('', (-9.37349864163661E-33, 5.73961255414617E-49, -5.73961255414617E-49));
#4 = VERTEX_POINT ('', #3);
#5 = CARTESIAN_POINT ('', (-2.39095153158666, 2.49762055395464, -6.11740603377039E-16));
#6 = CARTESIAN_POINT ('', (-2.1249291339051, 2.48600576523708, -6.08895800611892E-16));
#7 = CARTESIAN_POINT ('', (-1.5353037626894, 2.3641712296848, -5.7905494581395E-16));
#8 = CARTESIAN_POINT ('', (-0.806145223301522, 1.90698558824928, -4.67076759333924E-16));
#9 = CARTESIAN_POINT ('', (-0.179073464924361, 1.10547987065607, -2.70764477024157E-16));
#10 = CARTESIAN_POINT ('', (-3.97454217888876E-17, 0.428381992030189, -1.04923327070428E-16));
#11 = CARTESIAN_POINT ('', (-9.37349864163661E-33, 5.73961255414617E-49, -5.73961255414617E-49));
#12 = B_SPLINE_CURVE_WITH_KNOTS ('', 3, (#5, #6, #7, #8, #9, #10, #11), .UNSPECIFIED., .F., .U., (4, 1, 1, 1, 4), (0., 0.209231745365061, 0.467158513001786, 0.663389986339611, 1.), .UNSPECIFIED.);
#13 = EDGE_CURVE ('', #2, #4, #12, .T.);
#14 = ORIENTED_EDGE ('', *, *, #13, .F.);
#15 = CARTESIAN_POINT ('', (-2.39095153158666, 2.49762055395464, -6.11740603377039E-16));
#16 = CARTESIAN_POINT ('', (-2.39095153158666, 2.49762055395465, 9.99048221581858));
#17 = CARTESIAN_POINT ('', (-2.39095153158666, -7.49286166186393, 4.99524110790929));
#18 = CARTESIAN_POINT ('', (-2.39095153158666, -7.49286166186393, -4.99524110790929));
#19 = CARTESIAN_POINT ('', (-2.39095153158666, 2.49762055395464, -9.99048221581858));
#20 = CARTESIAN_POINT ('', (-2.39095153158666, 2.49762055395464, -6.11740603377039E-16));
#21 = (
   BOUNDED_CURVE ()
   B_SPLINE_CURVE (5, (#15, #16, #17, #18, #19, #20), .UNSPECIFIED., .T., .U.)
   B_SPLINE_CURVE_WITH_KNOTS ((6, 6), (0., 1.), .UNSPECIFIED.)
   CURVE ()
   GEOMETRIC_REPRESENTATION_ITEM ()
   RATIONAL_B_SPLINE_CURVE ((5., 1., 1., 1., 1., 5.))
   REPRESENTATION_ITEM ('')
);
#22 = EDGE_CURVE ('', #2, #2, #21, .T.);
#23 = ORIENTED_EDGE ('', *, *, #22, .T.);
#24 = ORIENTED_EDGE ('', *, *, #13, .T.);
#25 = EDGE_LOOP ('', (#14, #23, #24));
#26 = FACE_OUTER_BOUND ('', #25, .T.);
#27 = CARTESIAN_POINT ('', (-2.39095153158666, 2.49762055395464, -6.11740603377039E-16));
#28 = CARTESIAN_POINT ('', (-2.1249291339051, 2.48600576523708, -6.08895800611892E-16));
#29 = CARTESIAN_POINT ('', (-1.5353037626894, 2.3641712296848, -5.7905494581395E-16));
#30 = CARTESIAN_POINT ('', (-0.806145223301522, 1.90698558824928, -4.67076759333924E-16));
#31 = CARTESIAN_POINT ('', (-0.179073464924361, 1.10547987065607, -2.70764477024157E-16));
#32 = CARTESIAN_POINT ('', (-3.97454217888876E-17, 0.428381992030189, -1.04923327070428E-16));
#33 = CARTESIAN_POINT ('', (-9.37349864163661E-33, 5.73961255414617E-49, -5.73961255414617E-49));
#34 = CARTESIAN_POINT ('', (-2.39095153158666, 2.49762055395465, 9.99048221581858));
#35 = CARTESIAN_POINT ('', (-2.1249291339051, 2.48600576523709, 9.94402306094834));
#36 = CARTESIAN_POINT ('', (-1.5353037626894, 2.3641712296848, 9.45668491873919));
#37 = CARTESIAN_POINT ('', (-0.806145223301523, 1.90698558824929, 7.62794235299714));
#38 = CARTESIAN_POINT ('', (-0.179073464924361, 1.10547987065607, 4.42191948262428));
#39 = CARTESIAN_POINT ('', (-1.44668748859315E-16, 0.428381992030189, 1.71352796812075));
#40 = CARTESIAN_POINT ('', (-9.37349864163661E-33, 5.73961255414617E-49, -5.73961255414617E-49));
#41 = CARTESIAN_POINT ('', (-2.39095153158666, -7.49286166186393, 4.99524110790929));
#42 = CARTESIAN_POINT ('', (-2.1249291339051, -7.45801729571125, 4.97201153047417));
#43 = CARTESIAN_POINT ('', (-1.5353037626894, -7.09251368905439, 4.72834245936959));
#44 = CARTESIAN_POINT ('', (-0.806145223301523, -5.72095676474785, 3.81397117649857));
#45 = CARTESIAN_POINT ('', (-0.179073464924361, -3.31643961196821, 2.21095974131214));
#46 = CARTESIAN_POINT ('', (-1.97130412394529E-16, -1.28514597609057, 0.856763984060378));
#47 = CARTESIAN_POINT ('', (-9.37349864163661E-33, 5.73961255414617E-49, -5.73961255414617E-49));
#48 = CARTESIAN_POINT ('', (-2.39095153158666, -7.49286166186393, -4.99524110790929));
#49 = CARTESIAN_POINT ('', (-2.1249291339051, -7.45801729571125, -4.97201153047417));
#50 = CARTESIAN_POINT ('', (-1.5353037626894, -7.09251368905439, -4.72834245936959));
#51 = CARTESIAN_POINT ('', (-0.806145223301522, -5.72095676474785, -3.81397117649857));
#52 = CARTESIAN_POINT ('', (-0.179073464924361, -3.31643961196821, -2.21095974131214));
#53 = CARTESIAN_POINT ('', (-9.22070853241014E-17, -1.28514597609057, -0.856763984060377));
#54 = CARTESIAN_POINT ('', (-9.37349864163661E-33, 5.73961255414617E-49, -5.73961255414617E-49));
#55 = CARTESIAN_POINT ('', (-2.39095153158666, 2.49762055395464, -9.99048221581858));
#56 = CARTESIAN_POINT ('', (-2.1249291339051, 2.48600576523708, -9.94402306094834));
#57 = CARTESIAN_POINT ('', (-1.5353037626894, 2.36417122968479, -9.45668491873919));
#58 = CARTESIAN_POINT ('', (-0.806145223301522, 1.90698558824928, -7.62794235299714));
#59 = CARTESIAN_POINT ('', (-0.179073464924361, 1.10547987065607, -4.42191948262428));
#60 = CARTESIAN_POINT ('', (6.51779052815398E-17, 0.428381992030188, -1.71352796812075));
#61 = CARTESIAN_POINT ('', (-9.37349864163661E-33, 5.73961255414617E-49, -5.73961255414617E-49));
#62 = CARTESIAN_POINT ('', (-2.39095153158666, 2.49762055395464, -6.11740603377039E-16));
#63 = CARTESIAN_POINT ('', (-2.1249291339051, 2.48600576523708, -6.08895800611892E-16));
#64 = CARTESIAN_POINT ('', (-1.5353037626894, 2.3641712296848, -5.7905494581395E-16));
#65 = CARTESIAN_POINT ('', (-0.806145223301522, 1.90698558824928, -4.67076759333924E-16));
#66 = CARTESIAN_POINT ('', (-0.179073464924361, 1.10547987065607, -2.70764477024157E-16));
#67 = CARTESIAN_POINT ('', (-3.97454217888876E-17, 0.428381992030189, -1.04923327070428E-16));
#68 = CARTESIAN_POINT ('', (-9.37349864163661E-33, 5.73961255414617E-49, -5.73961255414617E-49));
#69 = (
   BOUNDED_SURFACE ()
   B_SPLINE_SURFACE (5, 3, ((#27, #28, #29, #30, #31, #32, #33), (#34, #35, #36, #37, #38, #39, #40), (#41, #42, #43, #44, #45, #46, #47), (#48, #49, #50, #51, #52, #53, #54), (#55, #56, #57, #58, #59, #60, #61), (#62, #63, #64, #65, #66, #67, #68)), .UNSPECIFIED., .T., .F., .U.)
   B_SPLINE_SURFACE_WITH_KNOTS ((6, 6), (4, 1, 1, 1, 4), (0., 1.), (0., 0.209231745365061, 0.467158513001786, 0.663389986339611, 1.), .UNSPECIFIED.)
   SURFACE ()
   GEOMETRIC_REPRESENTATION_ITEM ()
   RATIONAL_B_SPLINE_SURFACE (((5., 5., 5., 5., 5., 5., 5.), (1., 1., 1., 1., 1., 1., 1.), (1., 1., 1., 1., 1., 1., 1.), (1., 1., 1., 1., 1., 1., 1.), (1., 1., 1., 1., 1., 1., 1.), (5., 5., 5., 5., 5., 5., 5.)))
   REPRESENTATION_ITEM ('')
);
#70 = ADVANCED_FACE ('', (#26), #69, .T.);
#71 = CARTESIAN_POINT ('', (-13.8973325801602, 3., -7.34788079488412E-16));
#72 = VERTEX_POINT ('', #71);
#73 = CARTESIAN_POINT ('', (-13.8973325801602, 3., -7.34788079488411E-16));
#74 = CARTESIAN_POINT ('', (-10.0618722306357, 2.83254018465155, -6.93772254117955E-16));
#75 = CARTESIAN_POINT ('', (-6.2264118811112, 2.66508036930309, -6.52756428747496E-16));
#76 = CARTESIAN_POINT ('', (-2.39095153158666, 2.49762055395464, -6.11740603377039E-16));
#77 = B_SPLINE_CURVE_WITH_KNOTS ('', 3, (#73, #74, #75, #76), .UNSPECIFIED., .F., .U., (4, 4), (0., 1.), .UNSPECIFIED.);
#78 = EDGE_CURVE ('', #72, #2, #77, .T.);
#79 = ORIENTED_EDGE ('', *, *, #78, .F.);
#80 = CARTESIAN_POINT ('', (-13.8973325801602, 3., -7.34788079488412E-16));
#81 = CARTESIAN_POINT ('', (-13.8973325801602, 3., 12.));
#82 = CARTESIAN_POINT ('', (-13.8973325801602, -9., 6.));
#83 = CARTESIAN_POINT ('', (-13.8973325801602, -9., -6.));
#84 = CARTESIAN_POINT ('', (-13.8973325801602, 3., -12.));
#85 = CARTESIAN_POINT ('', (-13.8973325801602, 3., -7.34788079488412E-16));
#86 = (
   BOUNDED_CURVE ()
   B_SPLINE_CURVE (5, (#80, #81, #82, #83, #84, #85), .UNSPECIFIED., .T., .U.)
   B_SPLINE_CURVE_WITH_KNOTS ((6, 6), (0., 1.), .UNSPECIFIED.)
   CURVE ()
   GEOMETRIC_REPRESENTATION_ITEM ()
   RATIONAL_B_SPLINE_CURVE ((5., 1., 1., 1., 1., 5.))
   REPRESENTATION_ITEM ('')
);
#87 = EDGE_CURVE ('', #72, #72, #86, .T.);
#88 = ORIENTED_EDGE ('', *, *, #87, .T.);
#89 = ORIENTED_EDGE ('', *, *, #78, .T.);
#90 = ORIENTED_EDGE ('', *, *, #22, .F.);
#91 = EDGE_LOOP ('', (#79, #88, #89, #90));
#92 = FACE_OUTER_BOUND ('', #91, .T.);
#93 = CARTESIAN_POINT ('', (-13.8973325801602, 3., -7.34788079488411E-16));
#94 = CARTESIAN_POINT ('', (-10.0618722306357, 2.83254018465155, -6.93772254117955E-16));
#95 = CARTESIAN_POINT ('', (-6.2264118811112, 2.66508036930309, -6.52756428747496E-16));
#96 = CARTESIAN_POINT ('', (-2.39095153158666, 2.49762055395464, -6.11740603377039E-16));
#97 = CARTESIAN_POINT ('', (-13.8973325801602, 3., 12.));
#98 = CARTESIAN_POINT ('', (-10.0618722306357, 2.83254018465155, 11.3301607386062));
#99 = CARTESIAN_POINT ('', (-6.2264118811112, 2.6650803693031, 10.6603214772124));
#100 = CARTESIAN_POINT ('', (-2.39095153158666, 2.49762055395465, 9.99048221581858));
#101 = CARTESIAN_POINT ('', (-13.8973325801602, -9., 6.));
#102 = CARTESIAN_POINT ('', (-10.0618722306357, -8.49762055395465, 5.6650803693031));
#103 = CARTESIAN_POINT ('', (-6.2264118811112, -7.99524110790928, 5.33016073860619));
#104 = CARTESIAN_POINT ('', (-2.39095153158666, -7.49286166186393, 4.99524110790929));
#105 = CARTESIAN_POINT ('', (-13.8973325801602, -9., -6.));
#106 = CARTESIAN_POINT ('', (-10.0618722306357, -8.49762055395465, -5.6650803693031));
#107 = CARTESIAN_POINT ('', (-6.2264118811112, -7.99524110790928, -5.33016073860619));
#108 = CARTESIAN_POINT ('', (-2.39095153158666, -7.49286166186393, -4.99524110790929));
#109 = CARTESIAN_POINT ('', (-13.8973325801602, 3., -12.));
#110 = CARTESIAN_POINT ('', (-10.0618722306357, 2.83254018465155, -11.3301607386062));
#111 = CARTESIAN_POINT ('', (-6.2264118811112, 2.66508036930309, -10.6603214772124));
#112 = CARTESIAN_POINT ('', (-2.39095153158666, 2.49762055395464, -9.99048221581858));
#113 = CARTESIAN_POINT ('', (-13.8973325801602, 3., -7.34788079488411E-16));
#114 = CARTESIAN_POINT ('', (-10.0618722306357, 2.83254018465155, -6.93772254117955E-16));
#115 = CARTESIAN_POINT ('', (-6.2264118811112, 2.66508036930309, -6.52756428747496E-16));
#116 = CARTESIAN_POINT ('', (-2.39095153158666, 2.49762055395464, -6.11740603377039E-16));
#117 = (
   BOUNDED_SURFACE ()
   B_SPLINE_SURFACE (5, 3, ((#93, #94, #95, #96), (#97, #98, #99, #100), (#101, #102, #103, #104), (#105, #106, #107, #108), (#109, #110, #111, #112), (#113, #114, #115, #116)), .UNSPECIFIED., .T., .F., .U.)
   B_SPLINE_SURFACE_WITH_KNOTS ((6, 6), (4, 4), (0., 1.), (0., 1.), .UNSPECIFIED.)
   SURFACE ()
   GEOMETRIC_REPRESENTATION_ITEM ()
   RATIONAL_B_SPLINE_SURFACE (((5., 5., 5., 5.), (1., 1., 1., 1.), (1., 1., 1., 1.), (1., 1., 1., 1.), (1., 1., 1., 1.), (5., 5., 5., 5.)))
   REPRESENTATION_ITEM ('')
);
#118 = ADVANCED_FACE ('', (#92), #117, .T.);
#119 = CARTESIAN_POINT ('', (-99.75, 3., -7.3478807948841E-16));
#120 = VERTEX_POINT ('', #119);
#121 = CARTESIAN_POINT ('', (-99.75, 3., -7.3478807948841E-16));
#122 = CARTESIAN_POINT ('', (-71.1324441933867, 3., -7.34788079488411E-16));
#123 = CARTESIAN_POINT ('', (-42.5148883867734, 3., -7.34788079488411E-16));
#124 = CARTESIAN_POINT ('', (-13.8973325801602, 3., -7.34788079488412E-16));
#125 = B_SPLINE_CURVE_WITH_KNOTS ('', 3, (#121, #122, #123, #124), .UNSPECIFIED., .F., .U., (4, 4), (0., 1.), .UNSPECIFIED.);
#126 = EDGE_CURVE ('', #120, #72, #125, .T.);
#127 = ORIENTED_EDGE ('', *, *, #126, .F.);
#128 = CARTESIAN_POINT ('', (-99.75, 3., -7.3478807948841E-16));
#129 = CARTESIAN_POINT ('', (-99.75, 2.99999999999998, 12.));
#130 = CARTESIAN_POINT ('', (-99.75, -8.99999999999999, 5.99999999999997));
#131 = CARTESIAN_POINT ('', (-99.75, -8.99999999999997, -6.00000000000001));
#132 = CARTESIAN_POINT ('', (-99.75, 3.00000000000002, -12.));
#133 = CARTESIAN_POINT ('', (-99.75, 3., -7.3478807948841E-16));
#134 = (
   BOUNDED_CURVE ()
   B_SPLINE_CURVE (5, (#128, #129, #130, #131, #132, #133), .UNSPECIFIED., .T., .U.)
   B_SPLINE_CURVE_WITH_KNOTS ((6, 6), (0., 1.), .UNSPECIFIED.)
   CURVE ()
   GEOMETRIC_REPRESENTATION_ITEM ()
   RATIONAL_B_SPLINE_CURVE ((5., 1., 1., 1., 1., 5.))
   REPRESENTATION_ITEM ('')
);
#135 = EDGE_CURVE ('', #120, #120, #134, .T.);
#136 = ORIENTED_EDGE ('', *, *, #135, .T.);
#137 = ORIENTED_EDGE ('', *, *, #126, .T.);
#138 = ORIENTED_EDGE ('', *, *, #87, .F.);
#139 = EDGE_LOOP ('', (#127, #136, #137, #138));
#140 = FACE_OUTER_BOUND ('', #139, .T.);
#141 = CARTESIAN_POINT ('', (-99.75, 3., -7.3478807948841E-16));
#142 = CARTESIAN_POINT ('', (-71.1324441933867, 3., -7.34788079488411E-16));
#143 = CARTESIAN_POINT ('', (-42.5148883867734, 3., -7.34788079488411E-16));
#144 = CARTESIAN_POINT ('', (-13.8973325801602, 3., -7.34788079488412E-16));
#145 = CARTESIAN_POINT ('', (-99.75, 2.99999999999998, 12.));
#146 = CARTESIAN_POINT ('', (-71.1324441933867, 2.99999999999999, 12.));
#147 = CARTESIAN_POINT ('', (-42.5148883867734, 2.99999999999999, 12.));
#148 = CARTESIAN_POINT ('', (-13.8973325801602, 3., 12.));
#149 = CARTESIAN_POINT ('', (-99.75, -8.99999999999999, 5.99999999999997));
#150 = CARTESIAN_POINT ('', (-71.1324441933867, -8.99999999999999, 5.99999999999998));
#151 = CARTESIAN_POINT ('', (-42.5148883867734, -8.99999999999999, 5.99999999999998));
#152 = CARTESIAN_POINT ('', (-13.8973325801602, -9., 6.));
#153 = CARTESIAN_POINT ('', (-99.75, -8.99999999999997, -6.00000000000001));
#154 = CARTESIAN_POINT ('', (-71.1324441933867, -8.99999999999998, -6.00000000000001));
#155 = CARTESIAN_POINT ('', (-42.5148883867734, -8.99999999999998, -6.));
#156 = CARTESIAN_POINT ('', (-13.8973325801602, -9., -6.));
#157 = CARTESIAN_POINT ('', (-99.75, 3.00000000000002, -12.));
#158 = CARTESIAN_POINT ('', (-71.1324441933867, 3.00000000000001, -12.));
#159 = CARTESIAN_POINT ('', (-42.5148883867734, 3.00000000000001, -12.));
#160 = CARTESIAN_POINT ('', (-13.8973325801602, 3., -12.));
#161 = CARTESIAN_POINT ('', (-99.75, 3., -7.3478807948841E-16));
#162 = CARTESIAN_POINT ('', (-71.1324441933867, 3., -7.34788079488411E-16));
#163 = CARTESIAN_POINT ('', (-42.5148883867734, 3., -7.34788079488411E-16));
#164 = CARTESIAN_POINT ('', (-13.8973325801602, 3., -7.34788079488412E-16));
#165 = (
   BOUNDED_SURFACE ()
   B_SPLINE_SURFACE (5, 3, ((#141, #142, #143, #144), (#145, #146, #147, #148), (#149, #150, #151, #152), (#153, #154, #155, #156), (#157, #158, #159, #160), (#161, #162, #163, #164)), .UNSPECIFIED., .T., .F., .U.)
   B_SPLINE_SURFACE_WITH_KNOTS ((6, 6), (4, 4), (0., 1.), (0., 1.), .UNSPECIFIED.)
   SURFACE ()
   GEOMETRIC_REPRESENTATION_ITEM ()
   RATIONAL_B_SPLINE_SURFACE (((5., 5., 5., 5.), (1., 1., 1., 1.), (1., 1., 1., 1.), (1., 1., 1., 1.), (1., 1., 1., 1.), (5., 5., 5., 5.)))
   REPRESENTATION_ITEM ('')
);
#166 = ADVANCED_FACE ('', (#140), #165, .T.);
#167 = CARTESIAN_POINT ('', (-100., 2.75, -6.73555739531043E-16));
#168 = VERTEX_POINT ('', #167);
#169 = CARTESIAN_POINT ('', (-100., 2.75, -6.73555739531043E-16));
#170 = CARTESIAN_POINT ('', (-99.9166666666666, 2.83333333333333, -6.9396651951683E-16));
#171 = CARTESIAN_POINT ('', (-99.8333333333336, 2.91666666666668, -7.14377299502622E-16));
#172 = CARTESIAN_POINT ('', (-99.75, 3., -7.3478807948841E-16));
#173 = B_SPLINE_CURVE_WITH_KNOTS ('', 3, (#169, #170, #171, #172), .UNSPECIFIED., .F., .U., (4, 4), (0., 1.), .UNSPECIFIED.);
#174 = EDGE_CURVE ('', #168, #120, #173, .T.);
#175 = ORIENTED_EDGE ('', *, *, #174, .F.);
#176 = CARTESIAN_POINT ('', (-100., 2.75, -6.73555739531043E-16));
#177 = CARTESIAN_POINT ('', (-100., 2.74999999999998, 11.));
#178 = CARTESIAN_POINT ('', (-100., -8.24999999999999, 5.49999999999997));
#179 = CARTESIAN_POINT ('', (-100., -8.24999999999997, -5.50000000000001));
#180 = CARTESIAN_POINT ('', (-100., 2.75000000000002, -11.));
#181 = CARTESIAN_POINT ('', (-100., 2.75, -6.73555739531043E-16));
#182 = (
   BOUNDED_CURVE ()
   B_SPLINE_CURVE (5, (#176, #177, #178, #179, #180, #181), .UNSPECIFIED., .T., .U.)
   B_SPLINE_CURVE_WITH_KNOTS ((6, 6), (0., 1.), .UNSPECIFIED.)
   CURVE ()
   GEOMETRIC_REPRESENTATION_ITEM ()
   RATIONAL_B_SPLINE_CURVE ((5., 1., 1., 1., 1., 5.))
   REPRESENTATION_ITEM ('')
);
#183 = EDGE_CURVE ('', #168, #168, #182, .T.);
#184 = ORIENTED_EDGE ('', *, *, #183, .T.);
#185 = ORIENTED_EDGE ('', *, *, #174, .T.);
#186 = ORIENTED_EDGE ('', *, *, #135, .F.);
#187 = EDGE_LOOP ('', (#175, #184, #185, #186));
#188 = FACE_OUTER_BOUND ('', #187, .T.);
#189 = CARTESIAN_POINT ('', (-100., 2.75, -6.73555739531043E-16));
#190 = CARTESIAN_POINT ('', (-99.9166666666666, 2.83333333333333, -6.9396651951683E-16));
#191 = CARTESIAN_POINT ('', (-99.8333333333336, 2.91666666666668, -7.14377299502622E-16));
#192 = CARTESIAN_POINT ('', (-99.75, 3., -7.3478807948841E-16));
#193 = CARTESIAN_POINT ('', (-100., 2.74999999999998, 11.));
#194 = CARTESIAN_POINT ('', (-99.9166666666666, 2.8333333333333, 11.3333333333333));
#195 = CARTESIAN_POINT ('', (-99.8333333333336, 2.91666666666665, 11.6666666666667));
#196 = CARTESIAN_POINT ('', (-99.75, 2.99999999999998, 12.));
#197 = CARTESIAN_POINT ('', (-100., -8.24999999999999, 5.49999999999997));
#198 = CARTESIAN_POINT ('', (-99.9166666666666, -8.49999999999996, 5.66666666666662));
#199 = CARTESIAN_POINT ('', (-99.8333333333336, -8.75000000000001, 5.83333333333332));
#200 = CARTESIAN_POINT ('', (-99.75, -8.99999999999999, 5.99999999999997));
#201 = CARTESIAN_POINT ('', (-100., -8.24999999999997, -5.50000000000001));
#202 = CARTESIAN_POINT ('', (-99.9166666666666, -8.49999999999994, -5.66666666666666));
#203 = CARTESIAN_POINT ('', (-99.8333333333336, -8.74999999999999, -5.83333333333336));
#204 = CARTESIAN_POINT ('', (-99.75, -8.99999999999997, -6.00000000000001));
#205 = CARTESIAN_POINT ('', (-100., 2.75000000000002, -11.));
#206 = CARTESIAN_POINT ('', (-99.9166666666666, 2.83333333333335, -11.3333333333333));
#207 = CARTESIAN_POINT ('', (-99.8333333333336, 2.9166666666667, -11.6666666666667));
#208 = CARTESIAN_POINT ('', (-99.75, 3.00000000000002, -12.));
#209 = CARTESIAN_POINT ('', (-100., 2.75, -6.73555739531043E-16));
#210 = CARTESIAN_POINT ('', (-99.9166666666666, 2.83333333333333, -6.9396651951683E-16));
#211 = CARTESIAN_POINT ('', (-99.8333333333336, 2.91666666666668, -7.14377299502622E-16));
#212 = CARTESIAN_POINT ('', (-99.75, 3., -7.3478807948841E-16));
#213 = (
   BOUNDED_SURFACE ()
   B_SPLINE_SURFACE (5, 3, ((#189, #190, #191, #192), (#193, #194, #195, #196), (#197, #198, #199, #200), (#201, #202, #203, #204), (#205, #206, #207, #208), (#209, #210, #211, #212)), .UNSPECIFIED., .T., .F., .U.)
   B_SPLINE_SURFACE_WITH_KNOTS ((6, 6), (4, 4), (0., 1.), (0., 1.), .UNSPECIFIED.)
   SURFACE ()
   GEOMETRIC_REPRESENTATION_ITEM ()
   RATIONAL_B_SPLINE_SURFACE (((5., 5., 5., 5.), (1., 1., 1., 1.), (1., 1., 1., 1.), (1., 1., 1., 1.), (1., 1., 1., 1.), (5., 5., 5., 5.)))
   REPRESENTATION_ITEM ('')
);
#214 = ADVANCED_FACE ('', (#188), #213, .T.);
#215 = CARTESIAN_POINT ('', (-100., 6.12323399573677E-15, -6.12323399573677E-15));
#216 = VERTEX_POINT ('', #215);
#217 = CARTESIAN_POINT ('', (-100., 6.12323399573677E-15, -6.12323399573677E-15));
#218 = CARTESIAN_POINT ('', (-100., 0.916666666666671, -2.24518579843681E-16));
#219 = CARTESIAN_POINT ('', (-99.9999999999997, 1.83333333333334, -4.49037159687362E-16));
#220 = CARTESIAN_POINT ('', (-100., 2.75, -6.73555739531043E-16));
#221 = B_SPLINE_CURVE_WITH_KNOTS ('', 3, (#217, #218, #219, #220), .UNSPECIFIED., .F., .U., (4, 4), (0., 1.), .UNSPECIFIED.);
#222 = EDGE_CURVE ('', #216, #168, #221, .T.);
#223 = ORIENTED_EDGE ('', *, *, #222, .F.);
#224 = ORIENTED_EDGE ('', *, *, #222, .T.);
#225 = ORIENTED_EDGE ('', *, *, #183, .F.);
#226 = EDGE_LOOP ('', (#223, #224, #225));
#227 = FACE_OUTER_BOUND ('', #226, .T.);
#228 = CARTESIAN_POINT ('', (-100., 6.12323399573677E-15, -6.12323399573677E-15));
#229 = CARTESIAN_POINT ('', (-100., 0.916666666666671, -2.24518579843681E-16));
#230 = CARTESIAN_POINT ('', (-99.9999999999997, 1.83333333333334, -4.49037159687362E-16));
#231 = CARTESIAN_POINT ('', (-100., 2.75, -6.73555739531043E-16));
#232 = CARTESIAN_POINT ('', (-100., 6.12323399573677E-15, -6.12323399573677E-15));
#233 = CARTESIAN_POINT ('', (-100., 0.916666666666647, 3.66666666666666));
#234 = CARTESIAN_POINT ('', (-99.9999999999997, 1.83333333333332, 7.33333333333333));
#235 = CARTESIAN_POINT ('', (-100., 2.74999999999998, 11.));
#236 = CARTESIAN_POINT ('', (-100., 6.12323399573677E-15, -6.12323399573677E-15));
#237 = CARTESIAN_POINT ('', (-100., -2.75, 1.83333333333331));
#238 = CARTESIAN_POINT ('', (-99.9999999999997, -5.5, 3.66666666666664));
#239 = CARTESIAN_POINT ('', (-100., -8.24999999999999, 5.49999999999997));
#240 = CARTESIAN_POINT ('', (-100., 6.12323399573677E-15, -6.12323399573677E-15));
#241 = CARTESIAN_POINT ('', (-100., -2.74999999999998, -1.83333333333335));
#242 = CARTESIAN_POINT ('', (-99.9999999999997, -5.49999999999998, -3.66666666666669));
#243 = CARTESIAN_POINT ('', (-100., -8.24999999999997, -5.50000000000001));
#244 = CARTESIAN_POINT ('', (-100., 6.12323399573677E-15, -6.12323399573677E-15));
#245 = CARTESIAN_POINT ('', (-100., 0.916666666666695, -3.66666666666666));
#246 = CARTESIAN_POINT ('', (-99.9999999999997, 1.83333333333336, -7.33333333333333));
#247 = CARTESIAN_POINT ('', (-100., 2.75000000000002, -11.));
#248 = CARTESIAN_POINT ('', (-100., 6.12323399573677E-15, -6.12323399573677E-15));
#249 = CARTESIAN_POINT ('', (-100., 0.916666666666671, -2.24518579843681E-16));
#250 = CARTESIAN_POINT ('', (-99.9999999999997, 1.83333333333334, -4.49037159687362E-16));
#251 = CARTESIAN_POINT ('', (-100., 2.75, -6.73555739531043E-16));
#252 = (
   BOUNDED_SURFACE ()
   B_SPLINE_SURFACE (5, 3, ((#228, #229, #230, #231), (#232, #233, #234, #235), (#236, #237, #238, #239), (#240, #241, #242, #243), (#244, #245, #246, #247), (#248, #249, #250, #251)), .UNSPECIFIED., .T., .F., .U.)
   B_SPLINE_SURFACE_WITH_KNOTS ((6, 6), (4, 4), (0., 1.), (0., 1.), .UNSPECIFIED.)
   SURFACE ()
   GEOMETRIC_REPRESENTATION_ITEM ()
   RATIONAL_B_SPLINE_SURFACE (((5., 5., 5., 5.), (1., 1., 1., 1.), (1., 1., 1., 1.), (1., 1., 1., 1.), (1., 1., 1., 1.), (5., 5., 5., 5.)))
   REPRESENTATION_ITEM ('')
);
#253 = ADVANCED_FACE ('', (#227), #252, .T.);
#254 = CLOSED_SHELL ('', (#70, #118, #166, #214, #253));
#255 = MANIFOLD_SOLID_BREP ('', #254);
#256 = (
   LENGTH_UNIT ()
   NAMED_UNIT (*)
   SI_UNIT (.MILLI., .METRE.)
);
#257 = (
   NAMED_UNIT (*)
   SI_UNIT ($, .STERADIAN.)
   SOLID_ANGLE_UNIT ()
);
#258 = (
   NAMED_UNIT (*)
   SI_UNIT ($, .RADIAN.)
   PLANE_ANGLE_UNIT ()
);
#259 = UNCERTAINTY_MEASURE_WITH_UNIT (LENGTH_MEASURE(0.001), #256, 'DISTANCE_ACCURACY_VALUE', '');
#260 = (
   GEOMETRIC_REPRESENTATION_CONTEXT (3)
   GLOBAL_UNCERTAINTY_ASSIGNED_CONTEXT ((#259))
   GLOBAL_UNIT_ASSIGNED_CONTEXT ((#256, #257, #258))
   REPRESENTATION_CONTEXT ('', '3D')
);
#261 = SHAPE_REPRESENTATION ('', (), #260);
#262 = APPLICATION_CONTEXT ('configuration controlled 3D designs of mechanical parts and assemblies');
#263 = APPLICATION_PROTOCOL_DEFINITION ('International Standard', 'config_control_design', 1997, #262);
#264 = MECHANICAL_CONTEXT ('', #262, 'mechanical');
#265 = PRODUCT ('', '', '', (#264));
#266 = PERSON_AND_ORGANIZATION_ROLE ('design_owner');
#267 = PERSON ('', '', $, $, $, $);
#268 = ORGANIZATION ($, '', '');
#269 = PERSON_AND_ORGANIZATION (#267, #268);
#270 = CC_DESIGN_PERSON_AND_ORGANIZATION_ASSIGNMENT (#269, #266, (#265));
#271 = PRODUCT_RELATED_PRODUCT_CATEGORY ('detail', $, (#265));
#272 = PRODUCT_DEFINITION_FORMATION_WITH_SPECIFIED_SOURCE ('', '', #265, .NOT_KNOWN.);
#273 = APPROVAL_STATUS ('approved');
#274 = APPROVAL (#273, '');
#275 = CALENDAR_DATE (2020, 9, 7);
#276 = COORDINATED_UNIVERSAL_TIME_OFFSET (0, $, .AHEAD.);
#277 = LOCAL_TIME (12, 41, 56., #276);
#278 = DATE_AND_TIME (#275, #277);
#279 = APPROVAL_DATE_TIME (#278, #274);
#280 = APPROVAL_ROLE ('');
#281 = PERSON ('', '', $, $, $, $);
#282 = ORGANIZATION ($, '', '');
#283 = PERSON_AND_ORGANIZATION (#281, #282);
#284 = APPROVAL_PERSON_ORGANIZATION (#283, #274, #280);
#285 = CC_DESIGN_APPROVAL (#274, (#272));
#286 = PERSON_AND_ORGANIZATION_ROLE ('creator');
#287 = PERSON ('', '', $, $, $, $);
#288 = ORGANIZATION ($, '', '');
#289 = PERSON_AND_ORGANIZATION (#287, #288);
#290 = CC_DESIGN_PERSON_AND_ORGANIZATION_ASSIGNMENT (#289, #286, (#272));
#291 = PERSON_AND_ORGANIZATION_ROLE ('part_supplier');
#292 = PERSON ('', '', $, $, $, $);
#293 = ORGANIZATION ($, '', '');
#294 = PERSON_AND_ORGANIZATION (#292, #293);
#295 = CC_DESIGN_PERSON_AND_ORGANIZATION_ASSIGNMENT (#294, #291, (#272));
#296 = SECURITY_CLASSIFICATION_LEVEL ('unclassified');
#297 = SECURITY_CLASSIFICATION ('', '', #296);
#298 = APPROVAL_STATUS ('approved');
#299 = APPROVAL (#298, '');
#300 = CALENDAR_DATE (2020, 9, 7);
#301 = COORDINATED_UNIVERSAL_TIME_OFFSET (0, $, .AHEAD.);
#302 = LOCAL_TIME (12, 41, 56., #301);
#303 = DATE_AND_TIME (#300, #302);
#304 = APPROVAL_DATE_TIME (#303, #299);
#305 = APPROVAL_ROLE ('');
#306 = PERSON ('', '', $, $, $, $);
#307 = ORGANIZATION ($, '', '');
#308 = PERSON_AND_ORGANIZATION (#306, #307);
#309 = APPROVAL_PERSON_ORGANIZATION (#308, #299, #305);
#310 = CC_DESIGN_APPROVAL (#299, (#297));
#311 = DATE_TIME_ROLE ('classification_date');
#312 = CALENDAR_DATE (2020, 9, 7);
#313 = COORDINATED_UNIVERSAL_TIME_OFFSET (0, $, .AHEAD.);
#314 = LOCAL_TIME (12, 41, 56., #313);
#315 = DATE_AND_TIME (#312, #314);
#316 = CC_DESIGN_DATE_AND_TIME_ASSIGNMENT (#315, #311, (#297));
#317 = PERSON_AND_ORGANIZATION_ROLE ('classification_officer');
#318 = PERSON ('', '', $, $, $, $);
#319 = ORGANIZATION ($, '', '');
#320 = PERSON_AND_ORGANIZATION (#318, #319);
#321 = CC_DESIGN_PERSON_AND_ORGANIZATION_ASSIGNMENT (#320, #317, (#297));
#322 = CC_DESIGN_SECURITY_CLASSIFICATION (#297, (#272));
#323 = DESIGN_CONTEXT ('', #262, 'design');
#324 = PRODUCT_DEFINITION ('', '', #272, #323);
#325 = APPROVAL_STATUS ('approved');
#326 = APPROVAL (#325, '');
#327 = CALENDAR_DATE (2020, 9, 7);
#328 = COORDINATED_UNIVERSAL_TIME_OFFSET (0, $, .AHEAD.);
#329 = LOCAL_TIME (12, 41, 56., #328);
#330 = DATE_AND_TIME (#327, #329);
#331 = APPROVAL_DATE_TIME (#330, #326);
#332 = APPROVAL_ROLE ('');
#333 = PERSON ('', '', $, $, $, $);
#334 = ORGANIZATION ($, '', '');
#335 = PERSON_AND_ORGANIZATION (#333, #334);
#336 = APPROVAL_PERSON_ORGANIZATION (#335, #326, #332);
#337 = CC_DESIGN_APPROVAL (#326, (#324));
#338 = DATE_TIME_ROLE ('creation_date');
#339 = CALENDAR_DATE (2020, 9, 7);
#340 = COORDINATED_UNIVERSAL_TIME_OFFSET (0, $, .AHEAD.);
#341 = LOCAL_TIME (12, 41, 56., #340);
#342 = DATE_AND_TIME (#339, #341);
#343 = CC_DESIGN_DATE_AND_TIME_ASSIGNMENT (#342, #338, (#324));
#344 = PERSON_AND_ORGANIZATION_ROLE ('creator');
#345 = PERSON ('', '', $, $, $, $);
#346 = ORGANIZATION ($, '', '');
#347 = PERSON_AND_ORGANIZATION (#345, #346);
#348 = CC_DESIGN_PERSON_AND_ORGANIZATION_ASSIGNMENT (#347, #344, (#324));
#349 = PRODUCT_DEFINITION_SHAPE ('', '', #324);
#350 = SHAPE_DEFINITION_REPRESENTATION (#349, #261);
#351 = SHAPE_REPRESENTATION_RELATIONSHIP ('', '', #261, #352);
#352 = ADVANCED_BREP_SHAPE_REPRESENTATION ('', (#255), #260);
ENDSEC;
END-ISO-10303-21;
