ISO-10303-21;
HEADER;
FILE_DESCRIPTION ((), '1');
FILE_NAME ('C:\\Users\\kevin\\MFB Range\\MFTB0602.STP', '2020-07-09T12:45:41', ('Unknown'), ('mafordeurope'), 'OneCNC-XR7 Mill 3D Expert', 'OneCNC-XR7 Mill 3D Expert', '');
FILE_SCHEMA (('CONFIG_CONTROL_DESIGN'));
ENDSEC;

DATA;
#1 = CARTESIAN_POINT ('', (-2.86914183790399, 2.99714466474557, -7.34088724052447E-16));
#2 = VERTEX_POINT ('', #1);
#3 = CARTESIAN_POINT ('', (-1.12481983699639E-32, 6.8875350649754E-49, -6.8875350649754E-49));
#4 = VERTEX_POINT ('', #3);
#5 = CARTESIAN_POINT ('', (-2.86914183790399, 2.99714466474557, -7.34088724052447E-16));
#6 = CARTESIAN_POINT ('', (-2.54991496068611, 2.9832069182845, -7.30674960734271E-16));
#7 = CARTESIAN_POINT ('', (-1.84236451522728, 2.83700547562175, -6.94865934976739E-16));
#8 = CARTESIAN_POINT ('', (-0.967374267961827, 2.28838270589914, -5.60492111200708E-16));
#9 = CARTESIAN_POINT ('', (-0.413990715765395, 1.58106320827841, -3.8724879945356E-16));
#10 = CARTESIAN_POINT ('', (-0.083006649532465, 0.833464728955396, -2.04139982503488E-16));
#11 = CARTESIAN_POINT ('', (-2.47051591862316E-17, 0.319530999927536, -7.8262523257922E-17));
#12 = CARTESIAN_POINT ('', (-1.12481983699639E-32, 6.8875350649754E-49, -6.8875350649754E-49));
#13 = B_SPLINE_CURVE_WITH_KNOTS ('', 3, (#5, #6, #7, #8, #9, #10, #11, #12), .UNSPECIFIED., .F., .U., (4, 1, 1, 1, 1, 4), (0., 0.209231745365061, 0.467158513001786, 0.663389986339611, 0.790768254634939, 1.), .UNSPECIFIED.);
#14 = EDGE_CURVE ('', #2, #4, #13, .T.);
#15 = ORIENTED_EDGE ('', *, *, #14, .F.);
#16 = CARTESIAN_POINT ('', (-2.86914183790399, 2.99714466474557, -7.34088724052447E-16));
#17 = CARTESIAN_POINT ('', (-2.86914183790399, 2.99714466474558, 11.9885786589823));
#18 = CARTESIAN_POINT ('', (-2.86914183790399, -8.99143399423672, 5.99428932949115));
#19 = CARTESIAN_POINT ('', (-2.86914183790399, -8.99143399423672, -5.99428932949114));
#20 = CARTESIAN_POINT ('', (-2.86914183790399, 2.99714466474557, -11.9885786589823));
#21 = CARTESIAN_POINT ('', (-2.86914183790399, 2.99714466474557, -7.34088724052447E-16));
#22 = (
   BOUNDED_CURVE ()
   B_SPLINE_CURVE (5, (#16, #17, #18, #19, #20, #21), .UNSPECIFIED., .T., .U.)
   B_SPLINE_CURVE_WITH_KNOTS ((6, 6), (0., 1.), .UNSPECIFIED.)
   CURVE ()
   GEOMETRIC_REPRESENTATION_ITEM ()
   RATIONAL_B_SPLINE_CURVE ((5., 1., 1., 1., 1., 5.))
   REPRESENTATION_ITEM ('')
);
#23 = EDGE_CURVE ('', #2, #2, #22, .T.);
#24 = ORIENTED_EDGE ('', *, *, #23, .T.);
#25 = ORIENTED_EDGE ('', *, *, #14, .T.);
#26 = EDGE_LOOP ('', (#15, #24, #25));
#27 = FACE_OUTER_BOUND ('', #26, .T.);
#28 = CARTESIAN_POINT ('', (-2.86914183790399, 2.99714466474557, -7.34088724052447E-16));
#29 = CARTESIAN_POINT ('', (-2.54991496068611, 2.9832069182845, -7.30674960734271E-16));
#30 = CARTESIAN_POINT ('', (-1.84236451522728, 2.83700547562175, -6.94865934976739E-16));
#31 = CARTESIAN_POINT ('', (-0.967374267961827, 2.28838270589914, -5.60492111200708E-16));
#32 = CARTESIAN_POINT ('', (-0.413990715765395, 1.58106320827841, -3.8724879945356E-16));
#33 = CARTESIAN_POINT ('', (-0.083006649532465, 0.833464728955396, -2.04139982503488E-16));
#34 = CARTESIAN_POINT ('', (-2.47051591862316E-17, 0.319530999927536, -7.8262523257922E-17));
#35 = CARTESIAN_POINT ('', (-1.12481983699639E-32, 6.8875350649754E-49, -6.8875350649754E-49));
#36 = CARTESIAN_POINT ('', (-2.86914183790399, 2.99714466474558, 11.9885786589823));
#37 = CARTESIAN_POINT ('', (-2.54991496068611, 2.9832069182845, 11.932827673138));
#38 = CARTESIAN_POINT ('', (-1.84236451522728, 2.83700547562175, 11.348021902487));
#39 = CARTESIAN_POINT ('', (-0.967374267961827, 2.28838270589914, 9.15353082359656));
#40 = CARTESIAN_POINT ('', (-0.413990715765395, 1.58106320827841, 6.32425283311364));
#41 = CARTESIAN_POINT ('', (-0.0830066495324652, 0.833464728955397, 3.33385891582159));
#42 = CARTESIAN_POINT ('', (-1.02967682444154E-16, 0.319530999927536, 1.27812399971014));
#43 = CARTESIAN_POINT ('', (-1.12481983699639E-32, 6.8875350649754E-49, -6.8875350649754E-49));
#44 = CARTESIAN_POINT ('', (-2.86914183790399, -8.99143399423672, 5.99428932949115));
#45 = CARTESIAN_POINT ('', (-2.54991496068611, -8.9496207548535, 5.96641383656901));
#46 = CARTESIAN_POINT ('', (-1.84236451522728, -8.51101642686526, 5.67401095124351));
#47 = CARTESIAN_POINT ('', (-0.967374267961827, -6.86514811769742, 4.57676541179828));
#48 = CARTESIAN_POINT ('', (-0.413990715765396, -4.74318962483523, 3.16212641655682));
#49 = CARTESIAN_POINT ('', (-0.0830066495324653, -2.50039418686619, 1.66692945791079));
#50 = CARTESIAN_POINT ('', (-1.42098944073115E-16, -0.958592999782608, 0.639061999855072));
#51 = CARTESIAN_POINT ('', (-1.12481983699639E-32, 6.8875350649754E-49, -6.8875350649754E-49));
#52 = CARTESIAN_POINT ('', (-2.86914183790399, -8.99143399423672, -5.99428932949114));
#53 = CARTESIAN_POINT ('', (-2.54991496068611, -8.94962075485351, -5.966413836569));
#54 = CARTESIAN_POINT ('', (-1.84236451522728, -8.51101642686526, -5.6740109512435));
#55 = CARTESIAN_POINT ('', (-0.967374267961827, -6.86514811769742, -4.57676541179828));
#56 = CARTESIAN_POINT ('', (-0.413990715765395, -4.74318962483523, -3.16212641655682));
#57 = CARTESIAN_POINT ('', (-0.0830066495324651, -2.50039418686619, -1.66692945791079));
#58 = CARTESIAN_POINT ('', (-6.38364208151926E-17, -0.958592999782608, -0.639061999855072));
#59 = CARTESIAN_POINT ('', (-1.12481983699639E-32, 6.8875350649754E-49, -6.8875350649754E-49));
#60 = CARTESIAN_POINT ('', (-2.86914183790399, 2.99714466474557, -11.9885786589823));
#61 = CARTESIAN_POINT ('', (-2.54991496068611, 2.9832069182845, -11.932827673138));
#62 = CARTESIAN_POINT ('', (-1.84236451522728, 2.83700547562175, -11.348021902487));
#63 = CARTESIAN_POINT ('', (-0.967374267961826, 2.28838270589914, -9.15353082359656));
#64 = CARTESIAN_POINT ('', (-0.413990715765395, 1.58106320827841, -6.32425283311364));
#65 = CARTESIAN_POINT ('', (-0.0830066495324648, 0.833464728955395, -3.33385891582159));
#66 = CARTESIAN_POINT ('', (5.35573640716905E-17, 0.319530999927536, -1.27812399971014));
#67 = CARTESIAN_POINT ('', (-1.12481983699639E-32, 6.8875350649754E-49, -6.8875350649754E-49));
#68 = CARTESIAN_POINT ('', (-2.86914183790399, 2.99714466474557, -7.34088724052447E-16));
#69 = CARTESIAN_POINT ('', (-2.54991496068611, 2.9832069182845, -7.30674960734271E-16));
#70 = CARTESIAN_POINT ('', (-1.84236451522728, 2.83700547562175, -6.94865934976739E-16));
#71 = CARTESIAN_POINT ('', (-0.967374267961827, 2.28838270589914, -5.60492111200708E-16));
#72 = CARTESIAN_POINT ('', (-0.413990715765395, 1.58106320827841, -3.8724879945356E-16));
#73 = CARTESIAN_POINT ('', (-0.083006649532465, 0.833464728955396, -2.04139982503488E-16));
#74 = CARTESIAN_POINT ('', (-2.47051591862316E-17, 0.319530999927536, -7.8262523257922E-17));
#75 = CARTESIAN_POINT ('', (-1.12481983699639E-32, 6.8875350649754E-49, -6.8875350649754E-49));
#76 = (
   BOUNDED_SURFACE ()
   B_SPLINE_SURFACE (5, 3, ((#28, #29, #30, #31, #32, #33, #34, #35), (#36, #37, #38, #39, #40, #41, #42, #43), (#44, #45, #46, #47, #48, #49, #50, #51), (#52, #53, #54, #55, #56, #57, #58, #59), (#60, #61, #62, #63, #64, #65, #66, #67), (#68, #69, #70, #71, #72, #73, #74, #75)), .UNSPECIFIED., .T., .F., .U.)
   B_SPLINE_SURFACE_WITH_KNOTS ((6, 6), (4, 1, 1, 1, 1, 4), (0., 1.), (0., 0.209231745365061, 0.467158513001786, 0.663389986339611, 0.790768254634939, 1.), .UNSPECIFIED.)
   SURFACE ()
   GEOMETRIC_REPRESENTATION_ITEM ()
   RATIONAL_B_SPLINE_SURFACE (((5., 5., 5., 5., 5., 5., 5., 5.), (1., 1., 1., 1., 1., 1., 1., 1.), (1., 1., 1., 1., 1., 1., 1., 1.), (1., 1., 1., 1., 1., 1., 1., 1.), (1., 1., 1., 1., 1., 1., 1., 1.), (5., 5., 5., 5., 5., 5., 5., 5.)))
   REPRESENTATION_ITEM ('')
);
#77 = ADVANCED_FACE ('', (#27), #76, .T.);
#78 = CARTESIAN_POINT ('', (-25.8383053155647, 4., -9.79717439317882E-16));
#79 = VERTEX_POINT ('', #78);
#80 = CARTESIAN_POINT ('', (-25.8383053155647, 4., -9.79717439317882E-16));
#81 = CARTESIAN_POINT ('', (-18.1819174896779, 3.66571488824852, -8.97841200896069E-16));
#82 = CARTESIAN_POINT ('', (-10.5255296637909, 3.33142977649705, -8.15964962474259E-16));
#83 = CARTESIAN_POINT ('', (-2.86914183790399, 2.99714466474557, -7.34088724052447E-16));
#84 = B_SPLINE_CURVE_WITH_KNOTS ('', 3, (#80, #81, #82, #83), .UNSPECIFIED., .F., .U., (4, 4), (0., 1.), .UNSPECIFIED.);
#85 = EDGE_CURVE ('', #79, #2, #84, .T.);
#86 = ORIENTED_EDGE ('', *, *, #85, .F.);
#87 = CARTESIAN_POINT ('', (-25.8383053155647, 4., -9.79717439317882E-16));
#88 = CARTESIAN_POINT ('', (-25.8383053155647, 4., 16.));
#89 = CARTESIAN_POINT ('', (-25.8383053155647, -12., 7.99999999999999));
#90 = CARTESIAN_POINT ('', (-25.8383053155647, -12., -8.));
#91 = CARTESIAN_POINT ('', (-25.8383053155647, 4., -16.));
#92 = CARTESIAN_POINT ('', (-25.8383053155647, 4., -9.79717439317882E-16));
#93 = (
   BOUNDED_CURVE ()
   B_SPLINE_CURVE (5, (#87, #88, #89, #90, #91, #92), .UNSPECIFIED., .T., .U.)
   B_SPLINE_CURVE_WITH_KNOTS ((6, 6), (0., 1.), .UNSPECIFIED.)
   CURVE ()
   GEOMETRIC_REPRESENTATION_ITEM ()
   RATIONAL_B_SPLINE_CURVE ((5., 1., 1., 1., 1., 5.))
   REPRESENTATION_ITEM ('')
);
#94 = EDGE_CURVE ('', #79, #79, #93, .T.);
#95 = ORIENTED_EDGE ('', *, *, #94, .T.);
#96 = ORIENTED_EDGE ('', *, *, #85, .T.);
#97 = ORIENTED_EDGE ('', *, *, #23, .F.);
#98 = EDGE_LOOP ('', (#86, #95, #96, #97));
#99 = FACE_OUTER_BOUND ('', #98, .T.);
#100 = CARTESIAN_POINT ('', (-25.8383053155647, 4., -9.79717439317882E-16));
#101 = CARTESIAN_POINT ('', (-18.1819174896779, 3.66571488824852, -8.97841200896069E-16));
#102 = CARTESIAN_POINT ('', (-10.5255296637909, 3.33142977649705, -8.15964962474259E-16));
#103 = CARTESIAN_POINT ('', (-2.86914183790399, 2.99714466474557, -7.34088724052447E-16));
#104 = CARTESIAN_POINT ('', (-25.8383053155647, 4., 16.));
#105 = CARTESIAN_POINT ('', (-18.1819174896779, 3.66571488824852, 14.6628595529941));
#106 = CARTESIAN_POINT ('', (-10.5255296637909, 3.33142977649705, 13.3257191059882));
#107 = CARTESIAN_POINT ('', (-2.86914183790399, 2.99714466474558, 11.9885786589823));
#108 = CARTESIAN_POINT ('', (-25.8383053155647, -12., 7.99999999999999));
#109 = CARTESIAN_POINT ('', (-18.1819174896779, -10.9971446647456, 7.33142977649704));
#110 = CARTESIAN_POINT ('', (-10.5255296637909, -9.99428932949115, 6.6628595529941));
#111 = CARTESIAN_POINT ('', (-2.86914183790399, -8.99143399423672, 5.99428932949115));
#112 = CARTESIAN_POINT ('', (-25.8383053155647, -12., -8.));
#113 = CARTESIAN_POINT ('', (-18.1819174896779, -10.9971446647456, -7.33142977649704));
#114 = CARTESIAN_POINT ('', (-10.5255296637909, -9.99428932949115, -6.6628595529941));
#115 = CARTESIAN_POINT ('', (-2.86914183790399, -8.99143399423672, -5.99428932949114));
#116 = CARTESIAN_POINT ('', (-25.8383053155647, 4., -16.));
#117 = CARTESIAN_POINT ('', (-18.1819174896779, 3.66571488824852, -14.6628595529941));
#118 = CARTESIAN_POINT ('', (-10.5255296637909, 3.33142977649705, -13.3257191059882));
#119 = CARTESIAN_POINT ('', (-2.86914183790399, 2.99714466474557, -11.9885786589823));
#120 = CARTESIAN_POINT ('', (-25.8383053155647, 4., -9.79717439317882E-16));
#121 = CARTESIAN_POINT ('', (-18.1819174896779, 3.66571488824852, -8.97841200896069E-16));
#122 = CARTESIAN_POINT ('', (-10.5255296637909, 3.33142977649705, -8.15964962474259E-16));
#123 = CARTESIAN_POINT ('', (-2.86914183790399, 2.99714466474557, -7.34088724052447E-16));
#124 = (
   BOUNDED_SURFACE ()
   B_SPLINE_SURFACE (5, 3, ((#100, #101, #102, #103), (#104, #105, #106, #107), (#108, #109, #110, #111), (#112, #113, #114, #115), (#116, #117, #118, #119), (#120, #121, #122, #123)), .UNSPECIFIED., .T., .F., .U.)
   B_SPLINE_SURFACE_WITH_KNOTS ((6, 6), (4, 4), (0., 1.), (0., 1.), .UNSPECIFIED.)
   SURFACE ()
   GEOMETRIC_REPRESENTATION_ITEM ()
   RATIONAL_B_SPLINE_SURFACE (((5., 5., 5., 5.), (1., 1., 1., 1.), (1., 1., 1., 1.), (1., 1., 1., 1.), (1., 1., 1., 1.), (5., 5., 5., 5.)))
   REPRESENTATION_ITEM ('')
);
#125 = ADVANCED_FACE ('', (#99), #124, .T.);
#126 = CARTESIAN_POINT ('', (-99.75, 4., -9.79717439317881E-16));
#127 = VERTEX_POINT ('', #126);
#128 = CARTESIAN_POINT ('', (-99.75, 4., -9.79717439317881E-16));
#129 = CARTESIAN_POINT ('', (-75.1127684385215, 4., -9.79717439317881E-16));
#130 = CARTESIAN_POINT ('', (-50.4755368770431, 4., -9.79717439317881E-16));
#131 = CARTESIAN_POINT ('', (-25.8383053155647, 4., -9.79717439317882E-16));
#132 = B_SPLINE_CURVE_WITH_KNOTS ('', 3, (#128, #129, #130, #131), .UNSPECIFIED., .F., .U., (4, 4), (0., 1.), .UNSPECIFIED.);
#133 = EDGE_CURVE ('', #127, #79, #132, .T.);
#134 = ORIENTED_EDGE ('', *, *, #133, .F.);
#135 = CARTESIAN_POINT ('', (-99.75, 4., -9.79717439317881E-16));
#136 = CARTESIAN_POINT ('', (-99.75, 3.99999999999998, 16.));
#137 = CARTESIAN_POINT ('', (-99.75, -12., 7.99999999999997));
#138 = CARTESIAN_POINT ('', (-99.75, -12., -8.00000000000001));
#139 = CARTESIAN_POINT ('', (-99.75, 4.00000000000002, -16.));
#140 = CARTESIAN_POINT ('', (-99.75, 4., -9.79717439317881E-16));
#141 = (
   BOUNDED_CURVE ()
   B_SPLINE_CURVE (5, (#135, #136, #137, #138, #139, #140), .UNSPECIFIED., .T., .U.)
   B_SPLINE_CURVE_WITH_KNOTS ((6, 6), (0., 1.), .UNSPECIFIED.)
   CURVE ()
   GEOMETRIC_REPRESENTATION_ITEM ()
   RATIONAL_B_SPLINE_CURVE ((5., 1., 1., 1., 1., 5.))
   REPRESENTATION_ITEM ('')
);
#142 = EDGE_CURVE ('', #127, #127, #141, .T.);
#143 = ORIENTED_EDGE ('', *, *, #142, .T.);
#144 = ORIENTED_EDGE ('', *, *, #133, .T.);
#145 = ORIENTED_EDGE ('', *, *, #94, .F.);
#146 = EDGE_LOOP ('', (#134, #143, #144, #145));
#147 = FACE_OUTER_BOUND ('', #146, .T.);
#148 = CARTESIAN_POINT ('', (-99.75, 4., -9.79717439317881E-16));
#149 = CARTESIAN_POINT ('', (-75.1127684385215, 4., -9.79717439317881E-16));
#150 = CARTESIAN_POINT ('', (-50.4755368770431, 4., -9.79717439317881E-16));
#151 = CARTESIAN_POINT ('', (-25.8383053155647, 4., -9.79717439317882E-16));
#152 = CARTESIAN_POINT ('', (-99.75, 3.99999999999998, 16.));
#153 = CARTESIAN_POINT ('', (-75.1127684385215, 3.99999999999999, 16.));
#154 = CARTESIAN_POINT ('', (-50.4755368770431, 3.99999999999999, 16.));
#155 = CARTESIAN_POINT ('', (-25.8383053155647, 4., 16.));
#156 = CARTESIAN_POINT ('', (-99.75, -12., 7.99999999999997));
#157 = CARTESIAN_POINT ('', (-75.1127684385215, -12., 7.99999999999998));
#158 = CARTESIAN_POINT ('', (-50.4755368770431, -12., 7.99999999999998));
#159 = CARTESIAN_POINT ('', (-25.8383053155647, -12., 7.99999999999999));
#160 = CARTESIAN_POINT ('', (-99.75, -12., -8.00000000000001));
#161 = CARTESIAN_POINT ('', (-75.1127684385215, -12., -8.00000000000001));
#162 = CARTESIAN_POINT ('', (-50.4755368770431, -12., -8.));
#163 = CARTESIAN_POINT ('', (-25.8383053155647, -12., -8.));
#164 = CARTESIAN_POINT ('', (-99.75, 4.00000000000002, -16.));
#165 = CARTESIAN_POINT ('', (-75.1127684385215, 4.00000000000001, -16.));
#166 = CARTESIAN_POINT ('', (-50.4755368770431, 4.00000000000001, -16.));
#167 = CARTESIAN_POINT ('', (-25.8383053155647, 4., -16.));
#168 = CARTESIAN_POINT ('', (-99.75, 4., -9.79717439317881E-16));
#169 = CARTESIAN_POINT ('', (-75.1127684385215, 4., -9.79717439317881E-16));
#170 = CARTESIAN_POINT ('', (-50.4755368770431, 4., -9.79717439317881E-16));
#171 = CARTESIAN_POINT ('', (-25.8383053155647, 4., -9.79717439317882E-16));
#172 = (
   BOUNDED_SURFACE ()
   B_SPLINE_SURFACE (5, 3, ((#148, #149, #150, #151), (#152, #153, #154, #155), (#156, #157, #158, #159), (#160, #161, #162, #163), (#164, #165, #166, #167), (#168, #169, #170, #171)), .UNSPECIFIED., .T., .F., .U.)
   B_SPLINE_SURFACE_WITH_KNOTS ((6, 6), (4, 4), (0., 1.), (0., 1.), .UNSPECIFIED.)
   SURFACE ()
   GEOMETRIC_REPRESENTATION_ITEM ()
   RATIONAL_B_SPLINE_SURFACE (((5., 5., 5., 5.), (1., 1., 1., 1.), (1., 1., 1., 1.), (1., 1., 1., 1.), (1., 1., 1., 1.), (5., 5., 5., 5.)))
   REPRESENTATION_ITEM ('')
);
#173 = ADVANCED_FACE ('', (#147), #172, .T.);
#174 = CARTESIAN_POINT ('', (-100., 3.75, -9.18485099360513E-16));
#175 = VERTEX_POINT ('', #174);
#176 = CARTESIAN_POINT ('', (-100., 3.75, -9.18485099360513E-16));
#177 = CARTESIAN_POINT ('', (-99.9166666666666, 3.83333333333332, -9.388958793463E-16));
#178 = CARTESIAN_POINT ('', (-99.8333333333333, 3.91666666666667, -9.59306659332091E-16));
#179 = CARTESIAN_POINT ('', (-99.75, 4., -9.79717439317881E-16));
#180 = B_SPLINE_CURVE_WITH_KNOTS ('', 3, (#176, #177, #178, #179), .UNSPECIFIED., .F., .U., (4, 4), (0., 1.), .UNSPECIFIED.);
#181 = EDGE_CURVE ('', #175, #127, #180, .T.);
#182 = ORIENTED_EDGE ('', *, *, #181, .F.);
#183 = CARTESIAN_POINT ('', (-100., 3.75, -9.18485099360513E-16));
#184 = CARTESIAN_POINT ('', (-100., 3.74999999999998, 15.));
#185 = CARTESIAN_POINT ('', (-100., -11.25, 7.49999999999997));
#186 = CARTESIAN_POINT ('', (-100., -11.25, -7.50000000000001));
#187 = CARTESIAN_POINT ('', (-100., 3.75000000000002, -15.));
#188 = CARTESIAN_POINT ('', (-100., 3.75, -9.18485099360513E-16));
#189 = (
   BOUNDED_CURVE ()
   B_SPLINE_CURVE (5, (#183, #184, #185, #186, #187, #188), .UNSPECIFIED., .T., .U.)
   B_SPLINE_CURVE_WITH_KNOTS ((6, 6), (0., 1.), .UNSPECIFIED.)
   CURVE ()
   GEOMETRIC_REPRESENTATION_ITEM ()
   RATIONAL_B_SPLINE_CURVE ((5., 1., 1., 1., 1., 5.))
   REPRESENTATION_ITEM ('')
);
#190 = EDGE_CURVE ('', #175, #175, #189, .T.);
#191 = ORIENTED_EDGE ('', *, *, #190, .T.);
#192 = ORIENTED_EDGE ('', *, *, #181, .T.);
#193 = ORIENTED_EDGE ('', *, *, #142, .F.);
#194 = EDGE_LOOP ('', (#182, #191, #192, #193));
#195 = FACE_OUTER_BOUND ('', #194, .T.);
#196 = CARTESIAN_POINT ('', (-100., 3.75, -9.18485099360513E-16));
#197 = CARTESIAN_POINT ('', (-99.9166666666666, 3.83333333333332, -9.388958793463E-16));
#198 = CARTESIAN_POINT ('', (-99.8333333333333, 3.91666666666667, -9.59306659332091E-16));
#199 = CARTESIAN_POINT ('', (-99.75, 4., -9.79717439317881E-16));
#200 = CARTESIAN_POINT ('', (-100., 3.74999999999998, 15.));
#201 = CARTESIAN_POINT ('', (-99.9166666666666, 3.8333333333333, 15.3333333333333));
#202 = CARTESIAN_POINT ('', (-99.8333333333333, 3.91666666666664, 15.6666666666666));
#203 = CARTESIAN_POINT ('', (-99.75, 3.99999999999998, 16.));
#204 = CARTESIAN_POINT ('', (-100., -11.25, 7.49999999999997));
#205 = CARTESIAN_POINT ('', (-99.9166666666666, -11.5, 7.66666666666661));
#206 = CARTESIAN_POINT ('', (-99.8333333333333, -11.75, 7.8333333333333));
#207 = CARTESIAN_POINT ('', (-99.75, -12., 7.99999999999997));
#208 = CARTESIAN_POINT ('', (-100., -11.25, -7.50000000000001));
#209 = CARTESIAN_POINT ('', (-99.9166666666666, -11.4999999999999, -7.66666666666666));
#210 = CARTESIAN_POINT ('', (-99.8333333333333, -11.75, -7.83333333333334));
#211 = CARTESIAN_POINT ('', (-99.75, -12., -8.00000000000001));
#212 = CARTESIAN_POINT ('', (-100., 3.75000000000002, -15.));
#213 = CARTESIAN_POINT ('', (-99.9166666666666, 3.83333333333334, -15.3333333333333));
#214 = CARTESIAN_POINT ('', (-99.8333333333333, 3.91666666666669, -15.6666666666666));
#215 = CARTESIAN_POINT ('', (-99.75, 4.00000000000002, -16.));
#216 = CARTESIAN_POINT ('', (-100., 3.75, -9.18485099360513E-16));
#217 = CARTESIAN_POINT ('', (-99.9166666666666, 3.83333333333332, -9.388958793463E-16));
#218 = CARTESIAN_POINT ('', (-99.8333333333333, 3.91666666666667, -9.59306659332091E-16));
#219 = CARTESIAN_POINT ('', (-99.75, 4., -9.79717439317881E-16));
#220 = (
   BOUNDED_SURFACE ()
   B_SPLINE_SURFACE (5, 3, ((#196, #197, #198, #199), (#200, #201, #202, #203), (#204, #205, #206, #207), (#208, #209, #210, #211), (#212, #213, #214, #215), (#216, #217, #218, #219)), .UNSPECIFIED., .T., .F., .U.)
   B_SPLINE_SURFACE_WITH_KNOTS ((6, 6), (4, 4), (0., 1.), (0., 1.), .UNSPECIFIED.)
   SURFACE ()
   GEOMETRIC_REPRESENTATION_ITEM ()
   RATIONAL_B_SPLINE_SURFACE (((5., 5., 5., 5.), (1., 1., 1., 1.), (1., 1., 1., 1.), (1., 1., 1., 1.), (1., 1., 1., 1.), (5., 5., 5., 5.)))
   REPRESENTATION_ITEM ('')
);
#221 = ADVANCED_FACE ('', (#195), #220, .T.);
#222 = CARTESIAN_POINT ('', (-100., 6.12323399573677E-15, -6.12323399573677E-15));
#223 = VERTEX_POINT ('', #222);
#224 = CARTESIAN_POINT ('', (-100., 6.12323399573677E-15, -6.12323399573677E-15));
#225 = CARTESIAN_POINT ('', (-99.9999999999999, 1.25, -3.06161699786838E-16));
#226 = CARTESIAN_POINT ('', (-100., 2.5, -6.12323399573674E-16));
#227 = CARTESIAN_POINT ('', (-100., 3.75, -9.18485099360513E-16));
#228 = B_SPLINE_CURVE_WITH_KNOTS ('', 3, (#224, #225, #226, #227), .UNSPECIFIED., .F., .U., (4, 4), (0., 1.), .UNSPECIFIED.);
#229 = EDGE_CURVE ('', #223, #175, #228, .T.);
#230 = ORIENTED_EDGE ('', *, *, #229, .F.);
#231 = ORIENTED_EDGE ('', *, *, #229, .T.);
#232 = ORIENTED_EDGE ('', *, *, #190, .F.);
#233 = EDGE_LOOP ('', (#230, #231, #232));
#234 = FACE_OUTER_BOUND ('', #233, .T.);
#235 = CARTESIAN_POINT ('', (-100., 6.12323399573677E-15, -6.12323399573677E-15));
#236 = CARTESIAN_POINT ('', (-99.9999999999999, 1.25, -3.06161699786838E-16));
#237 = CARTESIAN_POINT ('', (-100., 2.5, -6.12323399573674E-16));
#238 = CARTESIAN_POINT ('', (-100., 3.75, -9.18485099360513E-16));
#239 = CARTESIAN_POINT ('', (-100., 6.12323399573677E-15, -6.12323399573677E-15));
#240 = CARTESIAN_POINT ('', (-99.9999999999999, 1.24999999999998, 4.99999999999999));
#241 = CARTESIAN_POINT ('', (-100., 2.49999999999998, 9.99999999999997));
#242 = CARTESIAN_POINT ('', (-100., 3.74999999999998, 15.));
#243 = CARTESIAN_POINT ('', (-100., 6.12323399573677E-15, -6.12323399573677E-15));
#244 = CARTESIAN_POINT ('', (-99.9999999999999, -3.75, 2.49999999999997));
#245 = CARTESIAN_POINT ('', (-100., -7.49999999999998, 4.99999999999996));
#246 = CARTESIAN_POINT ('', (-100., -11.25, 7.49999999999997));
#247 = CARTESIAN_POINT ('', (-100., 6.12323399573677E-15, -6.12323399573677E-15));
#248 = CARTESIAN_POINT ('', (-99.9999999999999, -3.74999999999998, -2.50000000000002));
#249 = CARTESIAN_POINT ('', (-100., -7.49999999999996, -5.00000000000001));
#250 = CARTESIAN_POINT ('', (-100., -11.25, -7.50000000000001));
#251 = CARTESIAN_POINT ('', (-100., 6.12323399573677E-15, -6.12323399573677E-15));
#252 = CARTESIAN_POINT ('', (-99.9999999999999, 1.25000000000003, -4.99999999999999));
#253 = CARTESIAN_POINT ('', (-100., 2.50000000000002, -9.99999999999997));
#254 = CARTESIAN_POINT ('', (-100., 3.75000000000002, -15.));
#255 = CARTESIAN_POINT ('', (-100., 6.12323399573677E-15, -6.12323399573677E-15));
#256 = CARTESIAN_POINT ('', (-99.9999999999999, 1.25, -3.06161699786838E-16));
#257 = CARTESIAN_POINT ('', (-100., 2.5, -6.12323399573674E-16));
#258 = CARTESIAN_POINT ('', (-100., 3.75, -9.18485099360513E-16));
#259 = (
   BOUNDED_SURFACE ()
   B_SPLINE_SURFACE (5, 3, ((#235, #236, #237, #238), (#239, #240, #241, #242), (#243, #244, #245, #246), (#247, #248, #249, #250), (#251, #252, #253, #254), (#255, #256, #257, #258)), .UNSPECIFIED., .T., .F., .U.)
   B_SPLINE_SURFACE_WITH_KNOTS ((6, 6), (4, 4), (0., 1.), (0., 1.), .UNSPECIFIED.)
   SURFACE ()
   GEOMETRIC_REPRESENTATION_ITEM ()
   RATIONAL_B_SPLINE_SURFACE (((5., 5., 5., 5.), (1., 1., 1., 1.), (1., 1., 1., 1.), (1., 1., 1., 1.), (1., 1., 1., 1.), (5., 5., 5., 5.)))
   REPRESENTATION_ITEM ('')
);
#260 = ADVANCED_FACE ('', (#234), #259, .T.);
#261 = CLOSED_SHELL ('', (#77, #125, #173, #221, #260));
#262 = MANIFOLD_SOLID_BREP ('', #261);
#263 = (
   LENGTH_UNIT ()
   NAMED_UNIT (*)
   SI_UNIT (.MILLI., .METRE.)
);
#264 = (
   NAMED_UNIT (*)
   SI_UNIT ($, .STERADIAN.)
   SOLID_ANGLE_UNIT ()
);
#265 = (
   NAMED_UNIT (*)
   SI_UNIT ($, .RADIAN.)
   PLANE_ANGLE_UNIT ()
);
#266 = UNCERTAINTY_MEASURE_WITH_UNIT (LENGTH_MEASURE(0.001), #263, 'DISTANCE_ACCURACY_VALUE', '');
#267 = (
   GEOMETRIC_REPRESENTATION_CONTEXT (3)
   GLOBAL_UNCERTAINTY_ASSIGNED_CONTEXT ((#266))
   GLOBAL_UNIT_ASSIGNED_CONTEXT ((#263, #264, #265))
   REPRESENTATION_CONTEXT ('', '3D')
);
#268 = SHAPE_REPRESENTATION ('', (), #267);
#269 = APPLICATION_CONTEXT ('configuration controlled 3D designs of mechanical parts and assemblies');
#270 = APPLICATION_PROTOCOL_DEFINITION ('International Standard', 'config_control_design', 1997, #269);
#271 = MECHANICAL_CONTEXT ('', #269, 'mechanical');
#272 = PRODUCT ('', '', '', (#271));
#273 = PERSON_AND_ORGANIZATION_ROLE ('design_owner');
#274 = PERSON ('', '', $, $, $, $);
#275 = ORGANIZATION ($, '', '');
#276 = PERSON_AND_ORGANIZATION (#274, #275);
#277 = CC_DESIGN_PERSON_AND_ORGANIZATION_ASSIGNMENT (#276, #273, (#272));
#278 = PRODUCT_RELATED_PRODUCT_CATEGORY ('detail', $, (#272));
#279 = PRODUCT_DEFINITION_FORMATION_WITH_SPECIFIED_SOURCE ('', '', #272, .NOT_KNOWN.);
#280 = APPROVAL_STATUS ('approved');
#281 = APPROVAL (#280, '');
#282 = CALENDAR_DATE (2020, 9, 7);
#283 = COORDINATED_UNIVERSAL_TIME_OFFSET (0, $, .AHEAD.);
#284 = LOCAL_TIME (12, 45, 41., #283);
#285 = DATE_AND_TIME (#282, #284);
#286 = APPROVAL_DATE_TIME (#285, #281);
#287 = APPROVAL_ROLE ('');
#288 = PERSON ('', '', $, $, $, $);
#289 = ORGANIZATION ($, '', '');
#290 = PERSON_AND_ORGANIZATION (#288, #289);
#291 = APPROVAL_PERSON_ORGANIZATION (#290, #281, #287);
#292 = CC_DESIGN_APPROVAL (#281, (#279));
#293 = PERSON_AND_ORGANIZATION_ROLE ('creator');
#294 = PERSON ('', '', $, $, $, $);
#295 = ORGANIZATION ($, '', '');
#296 = PERSON_AND_ORGANIZATION (#294, #295);
#297 = CC_DESIGN_PERSON_AND_ORGANIZATION_ASSIGNMENT (#296, #293, (#279));
#298 = PERSON_AND_ORGANIZATION_ROLE ('part_supplier');
#299 = PERSON ('', '', $, $, $, $);
#300 = ORGANIZATION ($, '', '');
#301 = PERSON_AND_ORGANIZATION (#299, #300);
#302 = CC_DESIGN_PERSON_AND_ORGANIZATION_ASSIGNMENT (#301, #298, (#279));
#303 = SECURITY_CLASSIFICATION_LEVEL ('unclassified');
#304 = SECURITY_CLASSIFICATION ('', '', #303);
#305 = APPROVAL_STATUS ('approved');
#306 = APPROVAL (#305, '');
#307 = CALENDAR_DATE (2020, 9, 7);
#308 = COORDINATED_UNIVERSAL_TIME_OFFSET (0, $, .AHEAD.);
#309 = LOCAL_TIME (12, 45, 41., #308);
#310 = DATE_AND_TIME (#307, #309);
#311 = APPROVAL_DATE_TIME (#310, #306);
#312 = APPROVAL_ROLE ('');
#313 = PERSON ('', '', $, $, $, $);
#314 = ORGANIZATION ($, '', '');
#315 = PERSON_AND_ORGANIZATION (#313, #314);
#316 = APPROVAL_PERSON_ORGANIZATION (#315, #306, #312);
#317 = CC_DESIGN_APPROVAL (#306, (#304));
#318 = DATE_TIME_ROLE ('classification_date');
#319 = CALENDAR_DATE (2020, 9, 7);
#320 = COORDINATED_UNIVERSAL_TIME_OFFSET (0, $, .AHEAD.);
#321 = LOCAL_TIME (12, 45, 41., #320);
#322 = DATE_AND_TIME (#319, #321);
#323 = CC_DESIGN_DATE_AND_TIME_ASSIGNMENT (#322, #318, (#304));
#324 = PERSON_AND_ORGANIZATION_ROLE ('classification_officer');
#325 = PERSON ('', '', $, $, $, $);
#326 = ORGANIZATION ($, '', '');
#327 = PERSON_AND_ORGANIZATION (#325, #326);
#328 = CC_DESIGN_PERSON_AND_ORGANIZATION_ASSIGNMENT (#327, #324, (#304));
#329 = CC_DESIGN_SECURITY_CLASSIFICATION (#304, (#279));
#330 = DESIGN_CONTEXT ('', #269, 'design');
#331 = PRODUCT_DEFINITION ('', '', #279, #330);
#332 = APPROVAL_STATUS ('approved');
#333 = APPROVAL (#332, '');
#334 = CALENDAR_DATE (2020, 9, 7);
#335 = COORDINATED_UNIVERSAL_TIME_OFFSET (0, $, .AHEAD.);
#336 = LOCAL_TIME (12, 45, 41., #335);
#337 = DATE_AND_TIME (#334, #336);
#338 = APPROVAL_DATE_TIME (#337, #333);
#339 = APPROVAL_ROLE ('');
#340 = PERSON ('', '', $, $, $, $);
#341 = ORGANIZATION ($, '', '');
#342 = PERSON_AND_ORGANIZATION (#340, #341);
#343 = APPROVAL_PERSON_ORGANIZATION (#342, #333, #339);
#344 = CC_DESIGN_APPROVAL (#333, (#331));
#345 = DATE_TIME_ROLE ('creation_date');
#346 = CALENDAR_DATE (2020, 9, 7);
#347 = COORDINATED_UNIVERSAL_TIME_OFFSET (0, $, .AHEAD.);
#348 = LOCAL_TIME (12, 45, 41., #347);
#349 = DATE_AND_TIME (#346, #348);
#350 = CC_DESIGN_DATE_AND_TIME_ASSIGNMENT (#349, #345, (#331));
#351 = PERSON_AND_ORGANIZATION_ROLE ('creator');
#352 = PERSON ('', '', $, $, $, $);
#353 = ORGANIZATION ($, '', '');
#354 = PERSON_AND_ORGANIZATION (#352, #353);
#355 = CC_DESIGN_PERSON_AND_ORGANIZATION_ASSIGNMENT (#354, #351, (#331));
#356 = PRODUCT_DEFINITION_SHAPE ('', '', #331);
#357 = SHAPE_DEFINITION_REPRESENTATION (#356, #268);
#358 = SHAPE_REPRESENTATION_RELATIONSHIP ('', '', #268, #359);
#359 = ADVANCED_BREP_SHAPE_REPRESENTATION ('', (#262), #267);
ENDSEC;
END-ISO-10303-21;
