ISO-10303-21;
HEADER;
FILE_DESCRIPTION ((), '1');
FILE_NAME ('C:\\Users\\kevin\\MFB Range\\MFTB0802.STP', '2020-07-09T12:51:51', ('Unknown'), ('mafordeurope'), 'OneCNC-XR7 Mill 3D Expert', 'OneCNC-XR7 Mill 3D Expert', '');
FILE_SCHEMA (('CONFIG_CONTROL_DESIGN'));
ENDSEC;

DATA;
#1 = CARTESIAN_POINT ('', (-3.82552245053866, 3.99619288632743, -9.78784965403262E-16));
#2 = VERTEX_POINT ('', #1);
#3 = CARTESIAN_POINT ('', (0., 0., 0.));
#4 = VERTEX_POINT ('', #3);
#5 = CARTESIAN_POINT ('', (-3.82552245053866, 3.99619288632743, -9.78784965403262E-16));
#6 = CARTESIAN_POINT ('', (-3.39988661424816, 3.97760922437934, -9.74233280979028E-16));
#7 = CARTESIAN_POINT ('', (-2.72012144251968, 3.83714906437739, -9.39830463908207E-16));
#8 = CARTESIAN_POINT ('', (-1.74352196381542, 3.35277729050371, -8.2119359541386E-16));
#9 = CARTESIAN_POINT ('', (-0.833511250931019, 2.57449769472735, -6.30570072252018E-16));
#10 = CARTESIAN_POINT ('', (-0.153599165765242, 1.37704697533801, -3.37279234124648E-16));
#11 = CARTESIAN_POINT ('', (6.16297582203915E-33, 0.426041333236715, -1.04350031010563E-16));
#12 = CARTESIAN_POINT ('', (0., 0., 0.));
#13 = B_SPLINE_CURVE_WITH_KNOTS ('', 3, (#5, #6, #7, #8, #9, #10, #11, #12), .UNSPECIFIED., .F., .U., (4, 1, 1, 1, 1, 4), (0., 0.209231745365061, 0.336610013660389, 0.532841486998214, 0.790768254634939, 1.), .UNSPECIFIED.);
#14 = EDGE_CURVE ('', #2, #4, #13, .T.);
#15 = ORIENTED_EDGE ('', *, *, #14, .F.);
#16 = CARTESIAN_POINT ('', (-3.82552245053866, 3.99619288632743, -9.78784965403262E-16));
#17 = CARTESIAN_POINT ('', (-3.82552245053866, 3.99619288632743, 15.9847715453097));
#18 = CARTESIAN_POINT ('', (-3.82552245053866, -11.9885786589823, 7.99238577265486));
#19 = CARTESIAN_POINT ('', (-3.82552245053866, -11.9885786589823, -7.99238577265486));
#20 = CARTESIAN_POINT ('', (-3.82552245053866, 3.99619288632743, -15.9847715453097));
#21 = CARTESIAN_POINT ('', (-3.82552245053866, 3.99619288632743, -9.78784965403262E-16));
#22 = (
   BOUNDED_CURVE ()
   B_SPLINE_CURVE (5, (#16, #17, #18, #19, #20, #21), .UNSPECIFIED., .T., .U.)
   B_SPLINE_CURVE_WITH_KNOTS ((6, 6), (0., 1.), .UNSPECIFIED.)
   CURVE ()
   GEOMETRIC_REPRESENTATION_ITEM ()
   RATIONAL_B_SPLINE_CURVE ((5., 1., 1., 1., 1., 5.))
   REPRESENTATION_ITEM ('')
);
#23 = EDGE_CURVE ('', #2, #2, #22, .T.);
#24 = ORIENTED_EDGE ('', *, *, #23, .T.);
#25 = ORIENTED_EDGE ('', *, *, #14, .T.);
#26 = EDGE_LOOP ('', (#15, #24, #25));
#27 = FACE_OUTER_BOUND ('', #26, .T.);
#28 = CARTESIAN_POINT ('', (-3.82552245053866, 3.99619288632743, -9.78784965403262E-16));
#29 = CARTESIAN_POINT ('', (-3.39988661424816, 3.97760922437934, -9.74233280979028E-16));
#30 = CARTESIAN_POINT ('', (-2.72012144251968, 3.83714906437739, -9.39830463908207E-16));
#31 = CARTESIAN_POINT ('', (-1.74352196381542, 3.35277729050371, -8.2119359541386E-16));
#32 = CARTESIAN_POINT ('', (-0.833511250931019, 2.57449769472735, -6.30570072252018E-16));
#33 = CARTESIAN_POINT ('', (-0.153599165765242, 1.37704697533801, -3.37279234124648E-16));
#34 = CARTESIAN_POINT ('', (6.16297582203915E-33, 0.426041333236715, -1.04350031010563E-16));
#35 = CARTESIAN_POINT ('', (0., 0., 0.));
#36 = CARTESIAN_POINT ('', (-3.82552245053866, 3.99619288632743, 15.9847715453097));
#37 = CARTESIAN_POINT ('', (-3.39988661424816, 3.97760922437934, 15.9104368975174));
#38 = CARTESIAN_POINT ('', (-2.72012144251968, 3.8371490643774, 15.3485962575096));
#39 = CARTESIAN_POINT ('', (-1.74352196381542, 3.35277729050371, 13.4111091620148));
#40 = CARTESIAN_POINT ('', (-0.83351125093102, 2.57449769472735, 10.2979907789094));
#41 = CARTESIAN_POINT ('', (-0.153599165765242, 1.37704697533801, 5.50818790135204));
#42 = CARTESIAN_POINT ('', (-1.04350031010563E-16, 0.426041333236715, 1.70416533294686));
#43 = CARTESIAN_POINT ('', (0., 0., 0.));
#44 = CARTESIAN_POINT ('', (-3.82552245053866, -11.9885786589823, 7.99238577265486));
#45 = CARTESIAN_POINT ('', (-3.39988661424816, -11.932827673138, 7.95521844875868));
#46 = CARTESIAN_POINT ('', (-2.72012144251968, -11.5114471931322, 7.67429812875479));
#47 = CARTESIAN_POINT ('', (-1.74352196381542, -10.0583318715111, 6.70555458100742));
#48 = CARTESIAN_POINT ('', (-0.83351125093102, -7.72349308418206, 5.14899538945471));
#49 = CARTESIAN_POINT ('', (-0.153599165765242, -4.13114092601403, 2.75409395067602));
#50 = CARTESIAN_POINT ('', (-1.56525046515844E-16, -1.27812399971014, 0.85208266647343));
#51 = CARTESIAN_POINT ('', (0., 0., 0.));
#52 = CARTESIAN_POINT ('', (-3.82552245053866, -11.9885786589823, -7.99238577265486));
#53 = CARTESIAN_POINT ('', (-3.39988661424816, -11.932827673138, -7.95521844875867));
#54 = CARTESIAN_POINT ('', (-2.72012144251968, -11.5114471931322, -7.67429812875478));
#55 = CARTESIAN_POINT ('', (-1.74352196381542, -10.0583318715111, -6.70555458100741));
#56 = CARTESIAN_POINT ('', (-0.833511250931019, -7.72349308418206, -5.1489953894547));
#57 = CARTESIAN_POINT ('', (-0.153599165765242, -4.13114092601403, -2.75409395067602));
#58 = CARTESIAN_POINT ('', (-5.21750155052814E-17, -1.27812399971015, -0.85208266647343));
#59 = CARTESIAN_POINT ('', (0., 0., 0.));
#60 = CARTESIAN_POINT ('', (-3.82552245053866, 3.99619288632743, -15.9847715453097));
#61 = CARTESIAN_POINT ('', (-3.39988661424816, 3.97760922437933, -15.9104368975174));
#62 = CARTESIAN_POINT ('', (-2.72012144251968, 3.83714906437739, -15.3485962575096));
#63 = CARTESIAN_POINT ('', (-1.74352196381542, 3.35277729050371, -13.4111091620148));
#64 = CARTESIAN_POINT ('', (-0.833511250931018, 2.57449769472735, -10.2979907789094));
#65 = CARTESIAN_POINT ('', (-0.153599165765241, 1.37704697533801, -5.50818790135204));
#66 = CARTESIAN_POINT ('', (1.04350031010563E-16, 0.426041333236714, -1.70416533294686));
#67 = CARTESIAN_POINT ('', (0., 0., 0.));
#68 = CARTESIAN_POINT ('', (-3.82552245053866, 3.99619288632743, -9.78784965403262E-16));
#69 = CARTESIAN_POINT ('', (-3.39988661424816, 3.97760922437934, -9.74233280979028E-16));
#70 = CARTESIAN_POINT ('', (-2.72012144251968, 3.83714906437739, -9.39830463908207E-16));
#71 = CARTESIAN_POINT ('', (-1.74352196381542, 3.35277729050371, -8.2119359541386E-16));
#72 = CARTESIAN_POINT ('', (-0.833511250931019, 2.57449769472735, -6.30570072252018E-16));
#73 = CARTESIAN_POINT ('', (-0.153599165765242, 1.37704697533801, -3.37279234124648E-16));
#74 = CARTESIAN_POINT ('', (6.16297582203915E-33, 0.426041333236715, -1.04350031010563E-16));
#75 = CARTESIAN_POINT ('', (0., 0., 0.));
#76 = (
   BOUNDED_SURFACE ()
   B_SPLINE_SURFACE (5, 3, ((#28, #29, #30, #31, #32, #33, #34, #35), (#36, #37, #38, #39, #40, #41, #42, #43), (#44, #45, #46, #47, #48, #49, #50, #51), (#52, #53, #54, #55, #56, #57, #58, #59), (#60, #61, #62, #63, #64, #65, #66, #67), (#68, #69, #70, #71, #72, #73, #74, #75)), .UNSPECIFIED., .T., .F., .U.)
   B_SPLINE_SURFACE_WITH_KNOTS ((6, 6), (4, 1, 1, 1, 1, 4), (0., 1.), (0., 0.209231745365061, 0.336610013660389, 0.532841486998214, 0.790768254634939, 1.), .UNSPECIFIED.)
   SURFACE ()
   GEOMETRIC_REPRESENTATION_ITEM ()
   RATIONAL_B_SPLINE_SURFACE (((5., 5., 5., 5., 5., 5., 5., 5.), (1., 1., 1., 1., 1., 1., 1., 1.), (1., 1., 1., 1., 1., 1., 1., 1.), (1., 1., 1., 1., 1., 1., 1., 1.), (1., 1., 1., 1., 1., 1., 1., 1.), (5., 5., 5., 5., 5., 5., 5., 5.)))
   REPRESENTATION_ITEM ('')
);
#77 = ADVANCED_FACE ('', (#27), #76, .T.);
#78 = CARTESIAN_POINT ('', (-26.8164852379426, 5., -1.22464679914735E-15));
#79 = VERTEX_POINT ('', #78);
#80 = CARTESIAN_POINT ('', (-26.8164852379426, 5., -1.22464679914735E-15));
#81 = CARTESIAN_POINT ('', (-19.1528309754746, 4.6653976287758, -1.14269285456599E-15));
#82 = CARTESIAN_POINT ('', (-11.4891767130066, 4.33079525755161, -1.06073890998462E-15));
#83 = CARTESIAN_POINT ('', (-3.82552245053866, 3.99619288632743, -9.78784965403262E-16));
#84 = B_SPLINE_CURVE_WITH_KNOTS ('', 3, (#80, #81, #82, #83), .UNSPECIFIED., .F., .U., (4, 4), (0., 1.), .UNSPECIFIED.);
#85 = EDGE_CURVE ('', #79, #2, #84, .T.);
#86 = ORIENTED_EDGE ('', *, *, #85, .F.);
#87 = CARTESIAN_POINT ('', (-26.8164852379426, 5., -1.22464679914735E-15));
#88 = CARTESIAN_POINT ('', (-26.8164852379426, 5., 20.));
#89 = CARTESIAN_POINT ('', (-26.8164852379426, -15., 9.99999999999999));
#90 = CARTESIAN_POINT ('', (-26.8164852379426, -15., -10.));
#91 = CARTESIAN_POINT ('', (-26.8164852379426, 5., -20.));
#92 = CARTESIAN_POINT ('', (-26.8164852379426, 5., -1.22464679914735E-15));
#93 = (
   BOUNDED_CURVE ()
   B_SPLINE_CURVE (5, (#87, #88, #89, #90, #91, #92), .UNSPECIFIED., .T., .U.)
   B_SPLINE_CURVE_WITH_KNOTS ((6, 6), (0., 1.), .UNSPECIFIED.)
   CURVE ()
   GEOMETRIC_REPRESENTATION_ITEM ()
   RATIONAL_B_SPLINE_CURVE ((5., 1., 1., 1., 1., 5.))
   REPRESENTATION_ITEM ('')
);
#94 = EDGE_CURVE ('', #79, #79, #93, .T.);
#95 = ORIENTED_EDGE ('', *, *, #94, .T.);
#96 = ORIENTED_EDGE ('', *, *, #85, .T.);
#97 = ORIENTED_EDGE ('', *, *, #23, .F.);
#98 = EDGE_LOOP ('', (#86, #95, #96, #97));
#99 = FACE_OUTER_BOUND ('', #98, .T.);
#100 = CARTESIAN_POINT ('', (-26.8164852379426, 5., -1.22464679914735E-15));
#101 = CARTESIAN_POINT ('', (-19.1528309754746, 4.6653976287758, -1.14269285456599E-15));
#102 = CARTESIAN_POINT ('', (-11.4891767130066, 4.33079525755161, -1.06073890998462E-15));
#103 = CARTESIAN_POINT ('', (-3.82552245053866, 3.99619288632743, -9.78784965403262E-16));
#104 = CARTESIAN_POINT ('', (-26.8164852379426, 5., 20.));
#105 = CARTESIAN_POINT ('', (-19.1528309754746, 4.6653976287758, 18.6615905151032));
#106 = CARTESIAN_POINT ('', (-11.4891767130066, 4.33079525755161, 17.3231810302064));
#107 = CARTESIAN_POINT ('', (-3.82552245053866, 3.99619288632743, 15.9847715453097));
#108 = CARTESIAN_POINT ('', (-26.8164852379426, -15., 9.99999999999999));
#109 = CARTESIAN_POINT ('', (-19.1528309754746, -13.9961928863274, 9.3307952575516));
#110 = CARTESIAN_POINT ('', (-11.4891767130066, -12.9923857726548, 8.66159051510322));
#111 = CARTESIAN_POINT ('', (-3.82552245053866, -11.9885786589823, 7.99238577265486));
#112 = CARTESIAN_POINT ('', (-26.8164852379426, -15., -10.));
#113 = CARTESIAN_POINT ('', (-19.1528309754746, -13.9961928863274, -9.3307952575516));
#114 = CARTESIAN_POINT ('', (-11.4891767130066, -12.9923857726548, -8.66159051510322));
#115 = CARTESIAN_POINT ('', (-3.82552245053866, -11.9885786589823, -7.99238577265486));
#116 = CARTESIAN_POINT ('', (-26.8164852379426, 5., -20.));
#117 = CARTESIAN_POINT ('', (-19.1528309754746, 4.6653976287758, -18.6615905151032));
#118 = CARTESIAN_POINT ('', (-11.4891767130066, 4.33079525755161, -17.3231810302064));
#119 = CARTESIAN_POINT ('', (-3.82552245053866, 3.99619288632743, -15.9847715453097));
#120 = CARTESIAN_POINT ('', (-26.8164852379426, 5., -1.22464679914735E-15));
#121 = CARTESIAN_POINT ('', (-19.1528309754746, 4.6653976287758, -1.14269285456599E-15));
#122 = CARTESIAN_POINT ('', (-11.4891767130066, 4.33079525755161, -1.06073890998462E-15));
#123 = CARTESIAN_POINT ('', (-3.82552245053866, 3.99619288632743, -9.78784965403262E-16));
#124 = (
   BOUNDED_SURFACE ()
   B_SPLINE_SURFACE (5, 3, ((#100, #101, #102, #103), (#104, #105, #106, #107), (#108, #109, #110, #111), (#112, #113, #114, #115), (#116, #117, #118, #119), (#120, #121, #122, #123)), .UNSPECIFIED., .T., .F., .U.)
   B_SPLINE_SURFACE_WITH_KNOTS ((6, 6), (4, 4), (0., 1.), (0., 1.), .UNSPECIFIED.)
   SURFACE ()
   GEOMETRIC_REPRESENTATION_ITEM ()
   RATIONAL_B_SPLINE_SURFACE (((5., 5., 5., 5.), (1., 1., 1., 1.), (1., 1., 1., 1.), (1., 1., 1., 1.), (1., 1., 1., 1.), (5., 5., 5., 5.)))
   REPRESENTATION_ITEM ('')
);
#125 = ADVANCED_FACE ('', (#99), #124, .T.);
#126 = CARTESIAN_POINT ('', (-99.75, 5., -1.22464679914735E-15));
#127 = VERTEX_POINT ('', #126);
#128 = CARTESIAN_POINT ('', (-99.75, 5., -1.22464679914735E-15));
#129 = CARTESIAN_POINT ('', (-75.4388284126476, 5., -1.22464679914735E-15));
#130 = CARTESIAN_POINT ('', (-51.1276568252951, 5., -1.22464679914735E-15));
#131 = CARTESIAN_POINT ('', (-26.8164852379426, 5., -1.22464679914735E-15));
#132 = B_SPLINE_CURVE_WITH_KNOTS ('', 3, (#128, #129, #130, #131), .UNSPECIFIED., .F., .U., (4, 4), (0., 1.), .UNSPECIFIED.);
#133 = EDGE_CURVE ('', #127, #79, #132, .T.);
#134 = ORIENTED_EDGE ('', *, *, #133, .F.);
#135 = CARTESIAN_POINT ('', (-99.75, 5., -1.22464679914735E-15));
#136 = CARTESIAN_POINT ('', (-99.75, 4.99999999999998, 20.));
#137 = CARTESIAN_POINT ('', (-99.75, -15., 9.99999999999997));
#138 = CARTESIAN_POINT ('', (-99.75, -15., -10.));
#139 = CARTESIAN_POINT ('', (-99.75, 5.00000000000002, -20.));
#140 = CARTESIAN_POINT ('', (-99.75, 5., -1.22464679914735E-15));
#141 = (
   BOUNDED_CURVE ()
   B_SPLINE_CURVE (5, (#135, #136, #137, #138, #139, #140), .UNSPECIFIED., .T., .U.)
   B_SPLINE_CURVE_WITH_KNOTS ((6, 6), (0., 1.), .UNSPECIFIED.)
   CURVE ()
   GEOMETRIC_REPRESENTATION_ITEM ()
   RATIONAL_B_SPLINE_CURVE ((5., 1., 1., 1., 1., 5.))
   REPRESENTATION_ITEM ('')
);
#142 = EDGE_CURVE ('', #127, #127, #141, .T.);
#143 = ORIENTED_EDGE ('', *, *, #142, .T.);
#144 = ORIENTED_EDGE ('', *, *, #133, .T.);
#145 = ORIENTED_EDGE ('', *, *, #94, .F.);
#146 = EDGE_LOOP ('', (#134, #143, #144, #145));
#147 = FACE_OUTER_BOUND ('', #146, .T.);
#148 = CARTESIAN_POINT ('', (-99.75, 5., -1.22464679914735E-15));
#149 = CARTESIAN_POINT ('', (-75.4388284126476, 5., -1.22464679914735E-15));
#150 = CARTESIAN_POINT ('', (-51.1276568252951, 5., -1.22464679914735E-15));
#151 = CARTESIAN_POINT ('', (-26.8164852379426, 5., -1.22464679914735E-15));
#152 = CARTESIAN_POINT ('', (-99.75, 4.99999999999998, 20.));
#153 = CARTESIAN_POINT ('', (-75.4388284126476, 4.99999999999999, 20.));
#154 = CARTESIAN_POINT ('', (-51.1276568252951, 4.99999999999999, 20.));
#155 = CARTESIAN_POINT ('', (-26.8164852379426, 5., 20.));
#156 = CARTESIAN_POINT ('', (-99.75, -15., 9.99999999999997));
#157 = CARTESIAN_POINT ('', (-75.4388284126476, -15., 9.99999999999998));
#158 = CARTESIAN_POINT ('', (-51.1276568252951, -15., 9.99999999999998));
#159 = CARTESIAN_POINT ('', (-26.8164852379426, -15., 9.99999999999999));
#160 = CARTESIAN_POINT ('', (-99.75, -15., -10.));
#161 = CARTESIAN_POINT ('', (-75.4388284126476, -15., -10.));
#162 = CARTESIAN_POINT ('', (-51.1276568252951, -15., -10.));
#163 = CARTESIAN_POINT ('', (-26.8164852379426, -15., -10.));
#164 = CARTESIAN_POINT ('', (-99.75, 5.00000000000002, -20.));
#165 = CARTESIAN_POINT ('', (-75.4388284126476, 5.00000000000001, -20.));
#166 = CARTESIAN_POINT ('', (-51.1276568252951, 5.00000000000001, -20.));
#167 = CARTESIAN_POINT ('', (-26.8164852379426, 5., -20.));
#168 = CARTESIAN_POINT ('', (-99.75, 5., -1.22464679914735E-15));
#169 = CARTESIAN_POINT ('', (-75.4388284126476, 5., -1.22464679914735E-15));
#170 = CARTESIAN_POINT ('', (-51.1276568252951, 5., -1.22464679914735E-15));
#171 = CARTESIAN_POINT ('', (-26.8164852379426, 5., -1.22464679914735E-15));
#172 = (
   BOUNDED_SURFACE ()
   B_SPLINE_SURFACE (5, 3, ((#148, #149, #150, #151), (#152, #153, #154, #155), (#156, #157, #158, #159), (#160, #161, #162, #163), (#164, #165, #166, #167), (#168, #169, #170, #171)), .UNSPECIFIED., .T., .F., .U.)
   B_SPLINE_SURFACE_WITH_KNOTS ((6, 6), (4, 4), (0., 1.), (0., 1.), .UNSPECIFIED.)
   SURFACE ()
   GEOMETRIC_REPRESENTATION_ITEM ()
   RATIONAL_B_SPLINE_SURFACE (((5., 5., 5., 5.), (1., 1., 1., 1.), (1., 1., 1., 1.), (1., 1., 1., 1.), (1., 1., 1., 1.), (5., 5., 5., 5.)))
   REPRESENTATION_ITEM ('')
);
#173 = ADVANCED_FACE ('', (#147), #172, .T.);
#174 = CARTESIAN_POINT ('', (-100., 4.75, -1.16341445918998E-15));
#175 = VERTEX_POINT ('', #174);
#176 = CARTESIAN_POINT ('', (-100., 4.75, -1.16341445918998E-15));
#177 = CARTESIAN_POINT ('', (-99.9166666666664, 4.83333333333335, -1.18382523917578E-15));
#178 = CARTESIAN_POINT ('', (-99.8333333333335, 4.91666666666665, -1.20423601916156E-15));
#179 = CARTESIAN_POINT ('', (-99.75, 5., -1.22464679914735E-15));
#180 = B_SPLINE_CURVE_WITH_KNOTS ('', 3, (#176, #177, #178, #179), .UNSPECIFIED., .F., .U., (4, 4), (0., 1.), .UNSPECIFIED.);
#181 = EDGE_CURVE ('', #175, #127, #180, .T.);
#182 = ORIENTED_EDGE ('', *, *, #181, .F.);
#183 = CARTESIAN_POINT ('', (-100., 4.75, -1.16341445918998E-15));
#184 = CARTESIAN_POINT ('', (-100., 4.74999999999998, 19.));
#185 = CARTESIAN_POINT ('', (-100., -14.25, 9.49999999999997));
#186 = CARTESIAN_POINT ('', (-100., -14.25, -9.50000000000001));
#187 = CARTESIAN_POINT ('', (-100., 4.75000000000002, -19.));
#188 = CARTESIAN_POINT ('', (-100., 4.75, -1.16341445918998E-15));
#189 = (
   BOUNDED_CURVE ()
   B_SPLINE_CURVE (5, (#183, #184, #185, #186, #187, #188), .UNSPECIFIED., .T., .U.)
   B_SPLINE_CURVE_WITH_KNOTS ((6, 6), (0., 1.), .UNSPECIFIED.)
   CURVE ()
   GEOMETRIC_REPRESENTATION_ITEM ()
   RATIONAL_B_SPLINE_CURVE ((5., 1., 1., 1., 1., 5.))
   REPRESENTATION_ITEM ('')
);
#190 = EDGE_CURVE ('', #175, #175, #189, .T.);
#191 = ORIENTED_EDGE ('', *, *, #190, .T.);
#192 = ORIENTED_EDGE ('', *, *, #181, .T.);
#193 = ORIENTED_EDGE ('', *, *, #142, .F.);
#194 = EDGE_LOOP ('', (#182, #191, #192, #193));
#195 = FACE_OUTER_BOUND ('', #194, .T.);
#196 = CARTESIAN_POINT ('', (-100., 4.75, -1.16341445918998E-15));
#197 = CARTESIAN_POINT ('', (-99.9166666666664, 4.83333333333335, -1.18382523917578E-15));
#198 = CARTESIAN_POINT ('', (-99.8333333333335, 4.91666666666665, -1.20423601916156E-15));
#199 = CARTESIAN_POINT ('', (-99.75, 5., -1.22464679914735E-15));
#200 = CARTESIAN_POINT ('', (-100., 4.74999999999998, 19.));
#201 = CARTESIAN_POINT ('', (-99.9166666666664, 4.83333333333333, 19.3333333333334));
#202 = CARTESIAN_POINT ('', (-99.8333333333335, 4.91666666666663, 19.6666666666666));
#203 = CARTESIAN_POINT ('', (-99.75, 4.99999999999998, 20.));
#204 = CARTESIAN_POINT ('', (-100., -14.25, 9.49999999999997));
#205 = CARTESIAN_POINT ('', (-99.9166666666664, -14.5, 9.66666666666666));
#206 = CARTESIAN_POINT ('', (-99.8333333333335, -14.7499999999999, 9.83333333333327));
#207 = CARTESIAN_POINT ('', (-99.75, -15., 9.99999999999997));
#208 = CARTESIAN_POINT ('', (-100., -14.25, -9.50000000000001));
#209 = CARTESIAN_POINT ('', (-99.9166666666664, -14.5, -9.6666666666667));
#210 = CARTESIAN_POINT ('', (-99.8333333333335, -14.7499999999999, -9.83333333333331));
#211 = CARTESIAN_POINT ('', (-99.75, -15., -10.));
#212 = CARTESIAN_POINT ('', (-100., 4.75000000000002, -19.));
#213 = CARTESIAN_POINT ('', (-99.9166666666664, 4.83333333333337, -19.3333333333334));
#214 = CARTESIAN_POINT ('', (-99.8333333333335, 4.91666666666667, -19.6666666666666));
#215 = CARTESIAN_POINT ('', (-99.75, 5.00000000000002, -20.));
#216 = CARTESIAN_POINT ('', (-100., 4.75, -1.16341445918998E-15));
#217 = CARTESIAN_POINT ('', (-99.9166666666664, 4.83333333333335, -1.18382523917578E-15));
#218 = CARTESIAN_POINT ('', (-99.8333333333335, 4.91666666666665, -1.20423601916156E-15));
#219 = CARTESIAN_POINT ('', (-99.75, 5., -1.22464679914735E-15));
#220 = (
   BOUNDED_SURFACE ()
   B_SPLINE_SURFACE (5, 3, ((#196, #197, #198, #199), (#200, #201, #202, #203), (#204, #205, #206, #207), (#208, #209, #210, #211), (#212, #213, #214, #215), (#216, #217, #218, #219)), .UNSPECIFIED., .T., .F., .U.)
   B_SPLINE_SURFACE_WITH_KNOTS ((6, 6), (4, 4), (0., 1.), (0., 1.), .UNSPECIFIED.)
   SURFACE ()
   GEOMETRIC_REPRESENTATION_ITEM ()
   RATIONAL_B_SPLINE_SURFACE (((5., 5., 5., 5.), (1., 1., 1., 1.), (1., 1., 1., 1.), (1., 1., 1., 1.), (1., 1., 1., 1.), (5., 5., 5., 5.)))
   REPRESENTATION_ITEM ('')
);
#221 = ADVANCED_FACE ('', (#195), #220, .T.);
#222 = CARTESIAN_POINT ('', (-100., 6.12323399573677E-15, -6.12323399573677E-15));
#223 = VERTEX_POINT ('', #222);
#224 = CARTESIAN_POINT ('', (-100., 6.12323399573677E-15, -6.12323399573677E-15));
#225 = CARTESIAN_POINT ('', (-99.9999999999998, 1.58333333333334, -3.87804819729993E-16));
#226 = CARTESIAN_POINT ('', (-100., 3.16666666666666, -7.75609639459987E-16));
#227 = CARTESIAN_POINT ('', (-100., 4.75, -1.16341445918998E-15));
#228 = B_SPLINE_CURVE_WITH_KNOTS ('', 3, (#224, #225, #226, #227), .UNSPECIFIED., .F., .U., (4, 4), (0., 1.), .UNSPECIFIED.);
#229 = EDGE_CURVE ('', #223, #175, #228, .T.);
#230 = ORIENTED_EDGE ('', *, *, #229, .F.);
#231 = ORIENTED_EDGE ('', *, *, #229, .T.);
#232 = ORIENTED_EDGE ('', *, *, #190, .F.);
#233 = EDGE_LOOP ('', (#230, #231, #232));
#234 = FACE_OUTER_BOUND ('', #233, .T.);
#235 = CARTESIAN_POINT ('', (-100., 6.12323399573677E-15, -6.12323399573677E-15));
#236 = CARTESIAN_POINT ('', (-99.9999999999998, 1.58333333333334, -3.87804819729993E-16));
#237 = CARTESIAN_POINT ('', (-100., 3.16666666666666, -7.75609639459987E-16));
#238 = CARTESIAN_POINT ('', (-100., 4.75, -1.16341445918998E-15));
#239 = CARTESIAN_POINT ('', (-100., 6.12323399573677E-15, -6.12323399573677E-15));
#240 = CARTESIAN_POINT ('', (-99.9999999999998, 1.58333333333331, 6.33333333333332));
#241 = CARTESIAN_POINT ('', (-100., 3.16666666666664, 12.6666666666666));
#242 = CARTESIAN_POINT ('', (-100., 4.74999999999998, 19.));
#243 = CARTESIAN_POINT ('', (-100., 6.12323399573677E-15, -6.12323399573677E-15));
#244 = CARTESIAN_POINT ('', (-99.9999999999998, -4.75, 3.16666666666664));
#245 = CARTESIAN_POINT ('', (-100., -9.49999999999996, 6.33333333333328));
#246 = CARTESIAN_POINT ('', (-100., -14.25, 9.49999999999997));
#247 = CARTESIAN_POINT ('', (-100., 6.12323399573677E-15, -6.12323399573677E-15));
#248 = CARTESIAN_POINT ('', (-99.9999999999998, -4.74999999999998, -3.16666666666669));
#249 = CARTESIAN_POINT ('', (-100., -9.49999999999994, -6.33333333333333));
#250 = CARTESIAN_POINT ('', (-100., -14.25, -9.50000000000001));
#251 = CARTESIAN_POINT ('', (-100., 6.12323399573677E-15, -6.12323399573677E-15));
#252 = CARTESIAN_POINT ('', (-99.9999999999998, 1.58333333333336, -6.33333333333333));
#253 = CARTESIAN_POINT ('', (-100., 3.16666666666668, -12.6666666666666));
#254 = CARTESIAN_POINT ('', (-100., 4.75000000000002, -19.));
#255 = CARTESIAN_POINT ('', (-100., 6.12323399573677E-15, -6.12323399573677E-15));
#256 = CARTESIAN_POINT ('', (-99.9999999999998, 1.58333333333334, -3.87804819729993E-16));
#257 = CARTESIAN_POINT ('', (-100., 3.16666666666666, -7.75609639459987E-16));
#258 = CARTESIAN_POINT ('', (-100., 4.75, -1.16341445918998E-15));
#259 = (
   BOUNDED_SURFACE ()
   B_SPLINE_SURFACE (5, 3, ((#235, #236, #237, #238), (#239, #240, #241, #242), (#243, #244, #245, #246), (#247, #248, #249, #250), (#251, #252, #253, #254), (#255, #256, #257, #258)), .UNSPECIFIED., .T., .F., .U.)
   B_SPLINE_SURFACE_WITH_KNOTS ((6, 6), (4, 4), (0., 1.), (0., 1.), .UNSPECIFIED.)
   SURFACE ()
   GEOMETRIC_REPRESENTATION_ITEM ()
   RATIONAL_B_SPLINE_SURFACE (((5., 5., 5., 5.), (1., 1., 1., 1.), (1., 1., 1., 1.), (1., 1., 1., 1.), (1., 1., 1., 1.), (5., 5., 5., 5.)))
   REPRESENTATION_ITEM ('')
);
#260 = ADVANCED_FACE ('', (#234), #259, .T.);
#261 = CLOSED_SHELL ('', (#77, #125, #173, #221, #260));
#262 = MANIFOLD_SOLID_BREP ('', #261);
#263 = (
   LENGTH_UNIT ()
   NAMED_UNIT (*)
   SI_UNIT (.MILLI., .METRE.)
);
#264 = (
   NAMED_UNIT (*)
   SI_UNIT ($, .STERADIAN.)
   SOLID_ANGLE_UNIT ()
);
#265 = (
   NAMED_UNIT (*)
   SI_UNIT ($, .RADIAN.)
   PLANE_ANGLE_UNIT ()
);
#266 = UNCERTAINTY_MEASURE_WITH_UNIT (LENGTH_MEASURE(0.001), #263, 'DISTANCE_ACCURACY_VALUE', '');
#267 = (
   GEOMETRIC_REPRESENTATION_CONTEXT (3)
   GLOBAL_UNCERTAINTY_ASSIGNED_CONTEXT ((#266))
   GLOBAL_UNIT_ASSIGNED_CONTEXT ((#263, #264, #265))
   REPRESENTATION_CONTEXT ('', '3D')
);
#268 = SHAPE_REPRESENTATION ('', (), #267);
#269 = APPLICATION_CONTEXT ('configuration controlled 3D designs of mechanical parts and assemblies');
#270 = APPLICATION_PROTOCOL_DEFINITION ('International Standard', 'config_control_design', 1997, #269);
#271 = MECHANICAL_CONTEXT ('', #269, 'mechanical');
#272 = PRODUCT ('', '', '', (#271));
#273 = PERSON_AND_ORGANIZATION_ROLE ('design_owner');
#274 = PERSON ('', '', $, $, $, $);
#275 = ORGANIZATION ($, '', '');
#276 = PERSON_AND_ORGANIZATION (#274, #275);
#277 = CC_DESIGN_PERSON_AND_ORGANIZATION_ASSIGNMENT (#276, #273, (#272));
#278 = PRODUCT_RELATED_PRODUCT_CATEGORY ('detail', $, (#272));
#279 = PRODUCT_DEFINITION_FORMATION_WITH_SPECIFIED_SOURCE ('', '', #272, .NOT_KNOWN.);
#280 = APPROVAL_STATUS ('approved');
#281 = APPROVAL (#280, '');
#282 = CALENDAR_DATE (2020, 9, 7);
#283 = COORDINATED_UNIVERSAL_TIME_OFFSET (0, $, .AHEAD.);
#284 = LOCAL_TIME (12, 51, 51., #283);
#285 = DATE_AND_TIME (#282, #284);
#286 = APPROVAL_DATE_TIME (#285, #281);
#287 = APPROVAL_ROLE ('');
#288 = PERSON ('', '', $, $, $, $);
#289 = ORGANIZATION ($, '', '');
#290 = PERSON_AND_ORGANIZATION (#288, #289);
#291 = APPROVAL_PERSON_ORGANIZATION (#290, #281, #287);
#292 = CC_DESIGN_APPROVAL (#281, (#279));
#293 = PERSON_AND_ORGANIZATION_ROLE ('creator');
#294 = PERSON ('', '', $, $, $, $);
#295 = ORGANIZATION ($, '', '');
#296 = PERSON_AND_ORGANIZATION (#294, #295);
#297 = CC_DESIGN_PERSON_AND_ORGANIZATION_ASSIGNMENT (#296, #293, (#279));
#298 = PERSON_AND_ORGANIZATION_ROLE ('part_supplier');
#299 = PERSON ('', '', $, $, $, $);
#300 = ORGANIZATION ($, '', '');
#301 = PERSON_AND_ORGANIZATION (#299, #300);
#302 = CC_DESIGN_PERSON_AND_ORGANIZATION_ASSIGNMENT (#301, #298, (#279));
#303 = SECURITY_CLASSIFICATION_LEVEL ('unclassified');
#304 = SECURITY_CLASSIFICATION ('', '', #303);
#305 = APPROVAL_STATUS ('approved');
#306 = APPROVAL (#305, '');
#307 = CALENDAR_DATE (2020, 9, 7);
#308 = COORDINATED_UNIVERSAL_TIME_OFFSET (0, $, .AHEAD.);
#309 = LOCAL_TIME (12, 51, 51., #308);
#310 = DATE_AND_TIME (#307, #309);
#311 = APPROVAL_DATE_TIME (#310, #306);
#312 = APPROVAL_ROLE ('');
#313 = PERSON ('', '', $, $, $, $);
#314 = ORGANIZATION ($, '', '');
#315 = PERSON_AND_ORGANIZATION (#313, #314);
#316 = APPROVAL_PERSON_ORGANIZATION (#315, #306, #312);
#317 = CC_DESIGN_APPROVAL (#306, (#304));
#318 = DATE_TIME_ROLE ('classification_date');
#319 = CALENDAR_DATE (2020, 9, 7);
#320 = COORDINATED_UNIVERSAL_TIME_OFFSET (0, $, .AHEAD.);
#321 = LOCAL_TIME (12, 51, 51., #320);
#322 = DATE_AND_TIME (#319, #321);
#323 = CC_DESIGN_DATE_AND_TIME_ASSIGNMENT (#322, #318, (#304));
#324 = PERSON_AND_ORGANIZATION_ROLE ('classification_officer');
#325 = PERSON ('', '', $, $, $, $);
#326 = ORGANIZATION ($, '', '');
#327 = PERSON_AND_ORGANIZATION (#325, #326);
#328 = CC_DESIGN_PERSON_AND_ORGANIZATION_ASSIGNMENT (#327, #324, (#304));
#329 = CC_DESIGN_SECURITY_CLASSIFICATION (#304, (#279));
#330 = DESIGN_CONTEXT ('', #269, 'design');
#331 = PRODUCT_DEFINITION ('', '', #279, #330);
#332 = APPROVAL_STATUS ('approved');
#333 = APPROVAL (#332, '');
#334 = CALENDAR_DATE (2020, 9, 7);
#335 = COORDINATED_UNIVERSAL_TIME_OFFSET (0, $, .AHEAD.);
#336 = LOCAL_TIME (12, 51, 51., #335);
#337 = DATE_AND_TIME (#334, #336);
#338 = APPROVAL_DATE_TIME (#337, #333);
#339 = APPROVAL_ROLE ('');
#340 = PERSON ('', '', $, $, $, $);
#341 = ORGANIZATION ($, '', '');
#342 = PERSON_AND_ORGANIZATION (#340, #341);
#343 = APPROVAL_PERSON_ORGANIZATION (#342, #333, #339);
#344 = CC_DESIGN_APPROVAL (#333, (#331));
#345 = DATE_TIME_ROLE ('creation_date');
#346 = CALENDAR_DATE (2020, 9, 7);
#347 = COORDINATED_UNIVERSAL_TIME_OFFSET (0, $, .AHEAD.);
#348 = LOCAL_TIME (12, 51, 51., #347);
#349 = DATE_AND_TIME (#346, #348);
#350 = CC_DESIGN_DATE_AND_TIME_ASSIGNMENT (#349, #345, (#331));
#351 = PERSON_AND_ORGANIZATION_ROLE ('creator');
#352 = PERSON ('', '', $, $, $, $);
#353 = ORGANIZATION ($, '', '');
#354 = PERSON_AND_ORGANIZATION (#352, #353);
#355 = CC_DESIGN_PERSON_AND_ORGANIZATION_ASSIGNMENT (#354, #351, (#331));
#356 = PRODUCT_DEFINITION_SHAPE ('', '', #331);
#357 = SHAPE_DEFINITION_REPRESENTATION (#356, #268);
#358 = SHAPE_REPRESENTATION_RELATIONSHIP ('', '', #268, #359);
#359 = ADVANCED_BREP_SHAPE_REPRESENTATION ('', (#262), #267);
ENDSEC;
END-ISO-10303-21;
