ISO-10303-21;
HEADER;
FILE_DESCRIPTION ((), '1');
FILE_NAME ('C:\\DDrive\\ROB\\Rob\\Documents\\ROB\\Customers & Projects\\M\\MAFE\\TOOL STEP FILES\\MFBN\\MFTB1602.STP', '2020-07-08T13:56:38', ('Unknown'), ('M A Ford'), 'OneCNC-XR8 Mill 3D Expert', 'OneCNC-XR8 Mill 3D Expert', '');
FILE_SCHEMA (('CONFIG_CONTROL_DESIGN'));
ENDSEC;

DATA;
#1 = CARTESIAN_POINT ('', (-107.75, 10., -2.4492935982947E-15));
#2 = VERTEX_POINT ('', #1);
#3 = CARTESIAN_POINT ('', (-108., 9.75, -2.38806125833734E-15));
#4 = VERTEX_POINT ('', #3);
#5 = CARTESIAN_POINT ('', (-107.75, 10., -2.4492935982947E-15));
#6 = CARTESIAN_POINT ('', (-107.833333333334, 9.9166666666667, -2.42888281830892E-15));
#7 = CARTESIAN_POINT ('', (-107.916666666666, 9.83333333333331, -2.40847203832312E-15));
#8 = CARTESIAN_POINT ('', (-108., 9.75, -2.38806125833734E-15));
#9 = B_SPLINE_CURVE_WITH_KNOTS ('', 3, (#5, #6, #7, #8), .UNSPECIFIED., .F., .U., (4, 4), (0., 1.), .UNSPECIFIED.);
#10 = EDGE_CURVE ('', #2, #4, #9, .T.);
#11 = ORIENTED_EDGE ('', *, *, #10, .F.);
#12 = CARTESIAN_POINT ('', (-107.75, 10., -2.4492935982947E-15));
#13 = CARTESIAN_POINT ('', (-107.75, 9.99999999999998, 40.));
#14 = CARTESIAN_POINT ('', (-107.75, -30., 20.));
#15 = CARTESIAN_POINT ('', (-107.75, -30., -20.));
#16 = CARTESIAN_POINT ('', (-107.75, 10., -40.));
#17 = CARTESIAN_POINT ('', (-107.75, 10., -2.4492935982947E-15));
#18 = (
   BOUNDED_CURVE ()
   B_SPLINE_CURVE (5, (#12, #13, #14, #15, #16, #17), .UNSPECIFIED., .T., .U.)
   B_SPLINE_CURVE_WITH_KNOTS ((6, 6), (0., 1.), .UNSPECIFIED.)
   CURVE ()
   GEOMETRIC_REPRESENTATION_ITEM ()
   RATIONAL_B_SPLINE_CURVE ((5., 1., 1., 1., 1., 5.))
   REPRESENTATION_ITEM ('')
);
#19 = EDGE_CURVE ('', #2, #2, #18, .T.);
#20 = ORIENTED_EDGE ('', *, *, #19, .T.);
#21 = ORIENTED_EDGE ('', *, *, #10, .T.);
#22 = CARTESIAN_POINT ('', (-108., 9.75, -2.38806125833734E-15));
#23 = CARTESIAN_POINT ('', (-108., 9.74999999999998, 39.));
#24 = CARTESIAN_POINT ('', (-108., -29.25, 19.5));
#25 = CARTESIAN_POINT ('', (-108., -29.25, -19.5));
#26 = CARTESIAN_POINT ('', (-108., 9.75000000000002, -39.));
#27 = CARTESIAN_POINT ('', (-108., 9.75, -2.38806125833734E-15));
#28 = (
   BOUNDED_CURVE ()
   B_SPLINE_CURVE (5, (#22, #23, #24, #25, #26, #27), .UNSPECIFIED., .T., .U.)
   B_SPLINE_CURVE_WITH_KNOTS ((6, 6), (0., 1.), .UNSPECIFIED.)
   CURVE ()
   GEOMETRIC_REPRESENTATION_ITEM ()
   RATIONAL_B_SPLINE_CURVE ((5., 1., 1., 1., 1., 5.))
   REPRESENTATION_ITEM ('')
);
#29 = EDGE_CURVE ('', #4, #4, #28, .T.);
#30 = ORIENTED_EDGE ('', *, *, #29, .F.);
#31 = EDGE_LOOP ('', (#11, #20, #21, #30));
#32 = FACE_OUTER_BOUND ('', #31, .F.);
#33 = CARTESIAN_POINT ('', (-107.75, 10., -2.4492935982947E-15));
#34 = CARTESIAN_POINT ('', (-107.833333333334, 9.9166666666667, -2.42888281830892E-15));
#35 = CARTESIAN_POINT ('', (-107.916666666666, 9.83333333333331, -2.40847203832312E-15));
#36 = CARTESIAN_POINT ('', (-108., 9.75, -2.38806125833734E-15));
#37 = CARTESIAN_POINT ('', (-107.75, 9.99999999999998, 40.));
#38 = CARTESIAN_POINT ('', (-107.833333333334, 9.91666666666668, 39.6666666666668));
#39 = CARTESIAN_POINT ('', (-107.916666666666, 9.8333333333333, 39.3333333333332));
#40 = CARTESIAN_POINT ('', (-108., 9.74999999999998, 39.));
#41 = CARTESIAN_POINT ('', (-107.75, -30., 20.));
#42 = CARTESIAN_POINT ('', (-107.833333333334, -29.7500000000001, 19.8333333333334));
#43 = CARTESIAN_POINT ('', (-107.916666666666, -29.4999999999999, 19.6666666666666));
#44 = CARTESIAN_POINT ('', (-108., -29.25, 19.5));
#45 = CARTESIAN_POINT ('', (-107.75, -30., -20.));
#46 = CARTESIAN_POINT ('', (-107.833333333334, -29.7500000000001, -19.8333333333334));
#47 = CARTESIAN_POINT ('', (-107.916666666666, -29.4999999999999, -19.6666666666666));
#48 = CARTESIAN_POINT ('', (-108., -29.25, -19.5));
#49 = CARTESIAN_POINT ('', (-107.75, 10., -40.));
#50 = CARTESIAN_POINT ('', (-107.833333333334, 9.91666666666671, -39.6666666666668));
#51 = CARTESIAN_POINT ('', (-107.916666666666, 9.83333333333333, -39.3333333333332));
#52 = CARTESIAN_POINT ('', (-108., 9.75000000000002, -39.));
#53 = CARTESIAN_POINT ('', (-107.75, 10., -2.4492935982947E-15));
#54 = CARTESIAN_POINT ('', (-107.833333333334, 9.9166666666667, -2.42888281830892E-15));
#55 = CARTESIAN_POINT ('', (-107.916666666666, 9.83333333333331, -2.40847203832312E-15));
#56 = CARTESIAN_POINT ('', (-108., 9.75, -2.38806125833734E-15));
#57 = (
   BOUNDED_SURFACE ()
   B_SPLINE_SURFACE (5, 3, ((#33, #34, #35, #36), (#37, #38, #39, #40), (#41, #42, #43, #44), (#45, #46, #47, #48), (#49, #50, #51, #52), (#53, #54, #55, #56)), .UNSPECIFIED., .T., .F., .U.)
   B_SPLINE_SURFACE_WITH_KNOTS ((6, 6), (4, 4), (0., 1.), (0., 1.), .UNSPECIFIED.)
   SURFACE ()
   GEOMETRIC_REPRESENTATION_ITEM ()
   RATIONAL_B_SPLINE_SURFACE (((5., 5., 5., 5.), (1., 1., 1., 1.), (1., 1., 1., 1.), (1., 1., 1., 1.), (1., 1., 1., 1.), (5., 5., 5., 5.)))
   REPRESENTATION_ITEM ('')
);
#58 = ADVANCED_FACE ('', (#32), #57, .F.);
#59 = CARTESIAN_POINT ('', (-108., 6.61309271539571E-15, -6.61309271539571E-15));
#60 = VERTEX_POINT ('', #59);
#61 = CARTESIAN_POINT ('', (-108., 9.75, -2.38806125833734E-15));
#62 = CARTESIAN_POINT ('', (-108., 6.61309271539571E-15, -6.61309271539571E-15));
#63 = B_SPLINE_CURVE_WITH_KNOTS ('', 1, (#61, #62), .UNSPECIFIED., .F., .U., (2, 2), (0., 1.), .UNSPECIFIED.);
#64 = EDGE_CURVE ('', #4, #60, #63, .T.);
#65 = ORIENTED_EDGE ('', *, *, #64, .F.);
#66 = ORIENTED_EDGE ('', *, *, #29, .T.);
#67 = ORIENTED_EDGE ('', *, *, #64, .T.);
#68 = EDGE_LOOP ('', (#65, #66, #67));
#69 = FACE_OUTER_BOUND ('', #68, .F.);
#70 = CARTESIAN_POINT ('', (-108., 9.75, -2.38806125833734E-15));
#71 = CARTESIAN_POINT ('', (-108., 6.61309271539571E-15, -6.61309271539571E-15));
#72 = CARTESIAN_POINT ('', (-108., 9.74999999999998, 39.));
#73 = CARTESIAN_POINT ('', (-108., 6.61309271539571E-15, -6.61309271539571E-15));
#74 = CARTESIAN_POINT ('', (-108., -29.25, 19.5));
#75 = CARTESIAN_POINT ('', (-108., 6.61309271539571E-15, -6.61309271539571E-15));
#76 = CARTESIAN_POINT ('', (-108., -29.25, -19.5));
#77 = CARTESIAN_POINT ('', (-108., 6.61309271539571E-15, -6.61309271539571E-15));
#78 = CARTESIAN_POINT ('', (-108., 9.75000000000002, -39.));
#79 = CARTESIAN_POINT ('', (-108., 6.61309271539571E-15, -6.61309271539571E-15));
#80 = CARTESIAN_POINT ('', (-108., 9.75, -2.38806125833734E-15));
#81 = CARTESIAN_POINT ('', (-108., 6.61309271539571E-15, -6.61309271539571E-15));
#82 = (
   BOUNDED_SURFACE ()
   B_SPLINE_SURFACE (5, 1, ((#70, #71), (#72, #73), (#74, #75), (#76, #77), (#78, #79), (#80, #81)), .UNSPECIFIED., .T., .F., .U.)
   B_SPLINE_SURFACE_WITH_KNOTS ((6, 6), (2, 2), (0., 1.), (0., 1.), .UNSPECIFIED.)
   SURFACE ()
   GEOMETRIC_REPRESENTATION_ITEM ()
   RATIONAL_B_SPLINE_SURFACE (((5., 5.), (1., 1.), (1., 1.), (1., 1.), (1., 1.), (5., 5.)))
   REPRESENTATION_ITEM ('')
);
#83 = ADVANCED_FACE ('', (#69), #82, .F.);
#84 = CARTESIAN_POINT ('', (-53.6329704758851, 10., -2.44929359829471E-15));
#85 = VERTEX_POINT ('', #84);
#86 = CARTESIAN_POINT ('', (-53.6329704758851, 10., -2.44929359829471E-15));
#87 = CARTESIAN_POINT ('', (-71.6719803172567, 10., -2.44929359829471E-15));
#88 = CARTESIAN_POINT ('', (-89.7109901586285, 10., -2.44929359829471E-15));
#89 = CARTESIAN_POINT ('', (-107.75, 10., -2.4492935982947E-15));
#90 = B_SPLINE_CURVE_WITH_KNOTS ('', 3, (#86, #87, #88, #89), .UNSPECIFIED., .F., .U., (4, 4), (0., 1.), .UNSPECIFIED.);
#91 = EDGE_CURVE ('', #85, #2, #90, .T.);
#92 = ORIENTED_EDGE ('', *, *, #91, .F.);
#93 = CARTESIAN_POINT ('', (-53.6329704758851, 10., -2.44929359829471E-15));
#94 = CARTESIAN_POINT ('', (-53.6329704758851, 10., 40.));
#95 = CARTESIAN_POINT ('', (-53.6329704758851, -30., 20.));
#96 = CARTESIAN_POINT ('', (-53.6329704758851, -30., -20.));
#97 = CARTESIAN_POINT ('', (-53.6329704758851, 10., -40.));
#98 = CARTESIAN_POINT ('', (-53.6329704758851, 10., -2.44929359829471E-15));
#99 = (
   BOUNDED_CURVE ()
   B_SPLINE_CURVE (5, (#93, #94, #95, #96, #97, #98), .UNSPECIFIED., .T., .U.)
   B_SPLINE_CURVE_WITH_KNOTS ((6, 6), (0., 1.), .UNSPECIFIED.)
   CURVE ()
   GEOMETRIC_REPRESENTATION_ITEM ()
   RATIONAL_B_SPLINE_CURVE ((5., 1., 1., 1., 1., 5.))
   REPRESENTATION_ITEM ('')
);
#100 = EDGE_CURVE ('', #85, #85, #99, .T.);
#101 = ORIENTED_EDGE ('', *, *, #100, .T.);
#102 = ORIENTED_EDGE ('', *, *, #91, .T.);
#103 = ORIENTED_EDGE ('', *, *, #19, .F.);
#104 = EDGE_LOOP ('', (#92, #101, #102, #103));
#105 = FACE_OUTER_BOUND ('', #104, .F.);
#106 = CARTESIAN_POINT ('', (-53.6329704758851, 10., -2.44929359829471E-15));
#107 = CARTESIAN_POINT ('', (-71.6719803172567, 10., -2.44929359829471E-15));
#108 = CARTESIAN_POINT ('', (-89.7109901586285, 10., -2.44929359829471E-15));
#109 = CARTESIAN_POINT ('', (-107.75, 10., -2.4492935982947E-15));
#110 = CARTESIAN_POINT ('', (-53.6329704758851, 10., 40.));
#111 = CARTESIAN_POINT ('', (-71.6719803172567, 9.99999999999999, 40.));
#112 = CARTESIAN_POINT ('', (-89.7109901586285, 10., 40.));
#113 = CARTESIAN_POINT ('', (-107.75, 9.99999999999998, 40.));
#114 = CARTESIAN_POINT ('', (-53.6329704758851, -30., 20.));
#115 = CARTESIAN_POINT ('', (-71.6719803172567, -30., 20.));
#116 = CARTESIAN_POINT ('', (-89.7109901586285, -30., 20.));
#117 = CARTESIAN_POINT ('', (-107.75, -30., 20.));
#118 = CARTESIAN_POINT ('', (-53.6329704758851, -30., -20.));
#119 = CARTESIAN_POINT ('', (-71.6719803172567, -30., -20.));
#120 = CARTESIAN_POINT ('', (-89.7109901586285, -30., -20.));
#121 = CARTESIAN_POINT ('', (-107.75, -30., -20.));
#122 = CARTESIAN_POINT ('', (-53.6329704758851, 10., -40.));
#123 = CARTESIAN_POINT ('', (-71.6719803172567, 10., -40.));
#124 = CARTESIAN_POINT ('', (-89.7109901586285, 10., -40.));
#125 = CARTESIAN_POINT ('', (-107.75, 10., -40.));
#126 = CARTESIAN_POINT ('', (-53.6329704758851, 10., -2.44929359829471E-15));
#127 = CARTESIAN_POINT ('', (-71.6719803172567, 10., -2.44929359829471E-15));
#128 = CARTESIAN_POINT ('', (-89.7109901586285, 10., -2.44929359829471E-15));
#129 = CARTESIAN_POINT ('', (-107.75, 10., -2.4492935982947E-15));
#130 = (
   BOUNDED_SURFACE ()
   B_SPLINE_SURFACE (5, 3, ((#106, #107, #108, #109), (#110, #111, #112, #113), (#114, #115, #116, #117), (#118, #119, #120, #121), (#122, #123, #124, #125), (#126, #127, #128, #129)), .UNSPECIFIED., .T., .F., .U.)
   B_SPLINE_SURFACE_WITH_KNOTS ((6, 6), (4, 4), (0., 1.), (0., 1.), .UNSPECIFIED.)
   SURFACE ()
   GEOMETRIC_REPRESENTATION_ITEM ()
   RATIONAL_B_SPLINE_SURFACE (((5., 5., 5., 5.), (1., 1., 1., 1.), (1., 1., 1., 1.), (1., 1., 1., 1.), (1., 1., 1., 1.), (5., 5., 5., 5.)))
   REPRESENTATION_ITEM ('')
);
#131 = ADVANCED_FACE ('', (#105), #130, .F.);
#132 = CARTESIAN_POINT ('', (-7.65104490107731, 7.99238577265486, -1.95756993080652E-15));
#133 = VERTEX_POINT ('', #132);
#134 = CARTESIAN_POINT ('', (-7.65104490107731, 7.99238577265486, -1.95756993080652E-15));
#135 = CARTESIAN_POINT ('', (-22.9783534260132, 8.66159051510322, -2.12147781996925E-15));
#136 = CARTESIAN_POINT ('', (-38.3056619509495, 9.33079525755164, -2.28538570913198E-15));
#137 = CARTESIAN_POINT ('', (-53.6329704758851, 10., -2.44929359829471E-15));
#138 = B_SPLINE_CURVE_WITH_KNOTS ('', 3, (#134, #135, #136, #137), .UNSPECIFIED., .F., .U., (4, 4), (0., 1.), .UNSPECIFIED.);
#139 = EDGE_CURVE ('', #133, #85, #138, .T.);
#140 = ORIENTED_EDGE ('', *, *, #139, .F.);
#141 = CARTESIAN_POINT ('', (-7.65104490107731, 7.99238577265486, -1.95756993080652E-15));
#142 = CARTESIAN_POINT ('', (-7.65104490107731, 7.99238577265487, 31.9695430906194));
#143 = CARTESIAN_POINT ('', (-7.65104490107731, -23.9771573179646, 15.9847715453097));
#144 = CARTESIAN_POINT ('', (-7.65104490107731, -23.9771573179646, -15.9847715453097));
#145 = CARTESIAN_POINT ('', (-7.65104490107731, 7.99238577265486, -31.9695430906194));
#146 = CARTESIAN_POINT ('', (-7.65104490107731, 7.99238577265486, -1.95756993080652E-15));
#147 = (
   BOUNDED_CURVE ()
   B_SPLINE_CURVE (5, (#141, #142, #143, #144, #145, #146), .UNSPECIFIED., .T., .U.)
   B_SPLINE_CURVE_WITH_KNOTS ((6, 6), (0., 1.), .UNSPECIFIED.)
   CURVE ()
   GEOMETRIC_REPRESENTATION_ITEM ()
   RATIONAL_B_SPLINE_CURVE ((5., 1., 1., 1., 1., 5.))
   REPRESENTATION_ITEM ('')
);
#148 = EDGE_CURVE ('', #133, #133, #147, .T.);
#149 = ORIENTED_EDGE ('', *, *, #148, .T.);
#150 = ORIENTED_EDGE ('', *, *, #139, .T.);
#151 = ORIENTED_EDGE ('', *, *, #100, .F.);
#152 = EDGE_LOOP ('', (#140, #149, #150, #151));
#153 = FACE_OUTER_BOUND ('', #152, .F.);
#154 = CARTESIAN_POINT ('', (-7.65104490107731, 7.99238577265486, -1.95756993080652E-15));
#155 = CARTESIAN_POINT ('', (-22.9783534260132, 8.66159051510322, -2.12147781996925E-15));
#156 = CARTESIAN_POINT ('', (-38.3056619509495, 9.33079525755164, -2.28538570913198E-15));
#157 = CARTESIAN_POINT ('', (-53.6329704758851, 10., -2.44929359829471E-15));
#158 = CARTESIAN_POINT ('', (-7.65104490107731, 7.99238577265487, 31.9695430906194));
#159 = CARTESIAN_POINT ('', (-22.9783534260132, 8.66159051510323, 34.6463620604129));
#160 = CARTESIAN_POINT ('', (-38.3056619509495, 9.33079525755164, 37.3231810302066));
#161 = CARTESIAN_POINT ('', (-53.6329704758851, 10., 40.));
#162 = CARTESIAN_POINT ('', (-7.65104490107732, -23.9771573179646, 15.9847715453097));
#163 = CARTESIAN_POINT ('', (-22.9783534260132, -25.9847715453097, 17.3231810302064));
#164 = CARTESIAN_POINT ('', (-38.3056619509495, -27.9923857726549, 18.6615905151033));
#165 = CARTESIAN_POINT ('', (-53.6329704758851, -30., 20.));
#166 = CARTESIAN_POINT ('', (-7.65104490107731, -23.9771573179646, -15.9847715453097));
#167 = CARTESIAN_POINT ('', (-22.9783534260132, -25.9847715453097, -17.3231810302064));
#168 = CARTESIAN_POINT ('', (-38.3056619509495, -27.9923857726549, -18.6615905151033));
#169 = CARTESIAN_POINT ('', (-53.6329704758851, -30., -20.));
#170 = CARTESIAN_POINT ('', (-7.65104490107731, 7.99238577265486, -31.9695430906194));
#171 = CARTESIAN_POINT ('', (-22.9783534260132, 8.66159051510322, -34.6463620604129));
#172 = CARTESIAN_POINT ('', (-38.3056619509495, 9.33079525755164, -37.3231810302066));
#173 = CARTESIAN_POINT ('', (-53.6329704758851, 10., -40.));
#174 = CARTESIAN_POINT ('', (-7.65104490107731, 7.99238577265486, -1.95756993080652E-15));
#175 = CARTESIAN_POINT ('', (-22.9783534260132, 8.66159051510322, -2.12147781996925E-15));
#176 = CARTESIAN_POINT ('', (-38.3056619509495, 9.33079525755164, -2.28538570913198E-15));
#177 = CARTESIAN_POINT ('', (-53.6329704758851, 10., -2.44929359829471E-15));
#178 = (
   BOUNDED_SURFACE ()
   B_SPLINE_SURFACE (5, 3, ((#154, #155, #156, #157), (#158, #159, #160, #161), (#162, #163, #164, #165), (#166, #167, #168, #169), (#170, #171, #172, #173), (#174, #175, #176, #177)), .UNSPECIFIED., .T., .F., .U.)
   B_SPLINE_SURFACE_WITH_KNOTS ((6, 6), (4, 4), (0., 1.), (0., 1.), .UNSPECIFIED.)
   SURFACE ()
   GEOMETRIC_REPRESENTATION_ITEM ()
   RATIONAL_B_SPLINE_SURFACE (((5., 5., 5., 5.), (1., 1., 1., 1.), (1., 1., 1., 1.), (1., 1., 1., 1.), (1., 1., 1., 1.), (5., 5., 5., 5.)))
   REPRESENTATION_ITEM ('')
);
#179 = ADVANCED_FACE ('', (#153), #178, .F.);
#180 = CARTESIAN_POINT ('', (0., 0., 0.));
#181 = VERTEX_POINT ('', #180);
#182 = CARTESIAN_POINT ('', (0., 0., 0.));
#183 = CARTESIAN_POINT ('', (-4.94103183724631E-17, 0.852082666473429, -2.08700062021125E-16));
#184 = CARTESIAN_POINT ('', (-0.221351065419905, 2.22257261054772, -5.44373286675968E-16));
#185 = CARTESIAN_POINT ('', (-0.995174815917665, 3.97041946529338, -9.72472297888777E-16));
#186 = CARTESIAN_POINT ('', (-2.0656753358275, 5.48994013008343, -1.34464752156345E-15));
#187 = CARTESIAN_POINT ('', (-3.48704392763084, 6.70555458100742, -1.64238719082772E-15));
#188 = CARTESIAN_POINT ('', (-5.44024288503934, 7.67429812875478, -1.87966092781641E-15));
#189 = CARTESIAN_POINT ('', (-6.7997732284963, 7.95521844875866, -1.94846656195805E-15));
#190 = CARTESIAN_POINT ('', (-7.65104490107731, 7.99238577265486, -1.95756993080652E-15));
#191 = B_SPLINE_CURVE_WITH_KNOTS ('', 3, (#182, #183, #184, #185, #186, #187, #188, #189, #190), .UNSPECIFIED., .F., .U., (4, 1, 1, 1, 1, 1, 4), (0., 0.209231745365061, 0.336610013660389, 0.467158513001786, 0.663389986339611, 0.790768254634939, 1.), .UNSPECIFIED.);
#192 = EDGE_CURVE ('', #181, #133, #191, .T.);
#193 = ORIENTED_EDGE ('', *, *, #192, .F.);
#194 = ORIENTED_EDGE ('', *, *, #192, .T.);
#195 = ORIENTED_EDGE ('', *, *, #148, .F.);
#196 = EDGE_LOOP ('', (#193, #194, #195));
#197 = FACE_OUTER_BOUND ('', #196, .F.);
#198 = CARTESIAN_POINT ('', (0., 0., 0.));
#199 = CARTESIAN_POINT ('', (-4.94103183724631E-17, 0.852082666473429, -2.08700062021125E-16));
#200 = CARTESIAN_POINT ('', (-0.221351065419905, 2.22257261054772, -5.44373286675968E-16));
#201 = CARTESIAN_POINT ('', (-0.995174815917665, 3.97041946529338, -9.72472297888777E-16));
#202 = CARTESIAN_POINT ('', (-2.0656753358275, 5.48994013008343, -1.34464752156345E-15));
#203 = CARTESIAN_POINT ('', (-3.48704392763084, 6.70555458100742, -1.64238719082772E-15));
#204 = CARTESIAN_POINT ('', (-5.44024288503934, 7.67429812875478, -1.87966092781641E-15));
#205 = CARTESIAN_POINT ('', (-6.7997732284963, 7.95521844875866, -1.94846656195805E-15));
#206 = CARTESIAN_POINT ('', (-7.65104490107731, 7.99238577265486, -1.95756993080652E-15));
#207 = CARTESIAN_POINT ('', (0., 0., 0.));
#208 = CARTESIAN_POINT ('', (-2.58110380393588E-16, 0.85208266647343, 3.40833066589372));
#209 = CARTESIAN_POINT ('', (-0.221351065419906, 2.22257261054772, 8.89029044219087));
#210 = CARTESIAN_POINT ('', (-0.995174815917666, 3.97041946529339, 15.8816778611735));
#211 = CARTESIAN_POINT ('', (-2.0656753358275, 5.48994013008343, 21.9597605203337));
#212 = CARTESIAN_POINT ('', (-3.48704392763085, 6.70555458100742, 26.8222183240297));
#213 = CARTESIAN_POINT ('', (-5.44024288503934, 7.67429812875479, 30.6971925150191));
#214 = CARTESIAN_POINT ('', (-6.7997732284963, 7.95521844875867, 31.8208737950346));
#215 = CARTESIAN_POINT ('', (-7.65104490107731, 7.99238577265487, 31.9695430906194));
#216 = CARTESIAN_POINT ('', (0., 0., 0.));
#217 = CARTESIAN_POINT ('', (-3.62460411404151E-16, -2.55624799942029, 1.70416533294686));
#218 = CARTESIAN_POINT ('', (-0.221351065419906, -6.66771783164315, 4.44514522109544));
#219 = CARTESIAN_POINT ('', (-0.995174815917666, -11.9112583958801, 7.94083893058677));
#220 = CARTESIAN_POINT ('', (-2.0656753358275, -16.4698203902503, 10.9798802601669));
#221 = CARTESIAN_POINT ('', (-3.48704392763085, -20.1166637430222, 13.4111091620148));
#222 = CARTESIAN_POINT ('', (-5.44024288503934, -23.0228943862644, 15.3485962575096));
#223 = CARTESIAN_POINT ('', (-6.7997732284963, -23.865655346276, 15.9104368975173));
#224 = CARTESIAN_POINT ('', (-7.65104490107731, -23.9771573179646, 15.9847715453097));
#225 = CARTESIAN_POINT ('', (0., 0., 0.));
#226 = CARTESIAN_POINT ('', (-1.53760349383026E-16, -2.55624799942029, -1.70416533294686));
#227 = CARTESIAN_POINT ('', (-0.221351065419906, -6.66771783164316, -4.44514522109544));
#228 = CARTESIAN_POINT ('', (-0.995174815917665, -11.9112583958801, -7.94083893058676));
#229 = CARTESIAN_POINT ('', (-2.0656753358275, -16.4698203902503, -10.9798802601668));
#230 = CARTESIAN_POINT ('', (-3.48704392763084, -20.1166637430223, -13.4111091620148));
#231 = CARTESIAN_POINT ('', (-5.44024288503934, -23.0228943862644, -15.3485962575096));
#232 = CARTESIAN_POINT ('', (-6.7997732284963, -23.865655346276, -15.9104368975173));
#233 = CARTESIAN_POINT ('', (-7.65104490107731, -23.9771573179646, -15.9847715453097));
#234 = CARTESIAN_POINT ('', (0., 0., 0.));
#235 = CARTESIAN_POINT ('', (1.59289743648662E-16, 0.852082666473428, -3.40833066589372));
#236 = CARTESIAN_POINT ('', (-0.221351065419905, 2.22257261054772, -8.89029044219087));
#237 = CARTESIAN_POINT ('', (-0.995174815917664, 3.97041946529338, -15.8816778611735));
#238 = CARTESIAN_POINT ('', (-2.0656753358275, 5.48994013008342, -21.9597605203337));
#239 = CARTESIAN_POINT ('', (-3.48704392763084, 6.70555458100741, -26.8222183240297));
#240 = CARTESIAN_POINT ('', (-5.44024288503933, 7.67429812875478, -30.6971925150191));
#241 = CARTESIAN_POINT ('', (-6.7997732284963, 7.95521844875865, -31.8208737950346));
#242 = CARTESIAN_POINT ('', (-7.65104490107731, 7.99238577265486, -31.9695430906194));
#243 = CARTESIAN_POINT ('', (0., 0., 0.));
#244 = CARTESIAN_POINT ('', (-4.94103183724631E-17, 0.852082666473429, -2.08700062021125E-16));
#245 = CARTESIAN_POINT ('', (-0.221351065419905, 2.22257261054772, -5.44373286675968E-16));
#246 = CARTESIAN_POINT ('', (-0.995174815917665, 3.97041946529338, -9.72472297888777E-16));
#247 = CARTESIAN_POINT ('', (-2.0656753358275, 5.48994013008343, -1.34464752156345E-15));
#248 = CARTESIAN_POINT ('', (-3.48704392763084, 6.70555458100742, -1.64238719082772E-15));
#249 = CARTESIAN_POINT ('', (-5.44024288503934, 7.67429812875478, -1.87966092781641E-15));
#250 = CARTESIAN_POINT ('', (-6.7997732284963, 7.95521844875866, -1.94846656195805E-15));
#251 = CARTESIAN_POINT ('', (-7.65104490107731, 7.99238577265486, -1.95756993080652E-15));
#252 = (
   BOUNDED_SURFACE ()
   B_SPLINE_SURFACE (5, 3, ((#198, #199, #200, #201, #202, #203, #204, #205, #206), (#207, #208, #209, #210, #211, #212, #213, #214, #215), (#216, #217, #218, #219, #220, #221, #222, #223, #224), (#225, #226, #227, #228, #229, #230, #231, #232, #233), (#234, #235, #236, #237, #238, #239, #240, #241, #242), (#243, #244, #245, #246, #247, #248, #249, #250, #251)), .UNSPECIFIED., .T., .F., .U.)
   B_SPLINE_SURFACE_WITH_KNOTS ((6, 6), (4, 1, 1, 1, 1, 1, 4), (0., 1.), (0., 0.209231745365061, 0.336610013660389, 0.467158513001786, 0.663389986339611, 0.790768254634939, 1.), .UNSPECIFIED.)
   SURFACE ()
   GEOMETRIC_REPRESENTATION_ITEM ()
   RATIONAL_B_SPLINE_SURFACE (((5., 5., 5., 5., 5., 5., 5., 5., 5.), (1., 1., 1., 1., 1., 1., 1., 1., 1.), (1., 1., 1., 1., 1., 1., 1., 1., 1.), (1., 1., 1., 1., 1., 1., 1., 1., 1.), (1., 1., 1., 1., 1., 1., 1., 1., 1.), (5., 5., 5., 5., 5., 5., 5., 5., 5.)))
   REPRESENTATION_ITEM ('')
);
#253 = ADVANCED_FACE ('', (#197), #252, .F.);
#254 = CLOSED_SHELL ('', (#58, #83, #131, #179, #253));
#255 = MANIFOLD_SOLID_BREP ('', #254);
#256 = (
   LENGTH_UNIT ()
   NAMED_UNIT (*)
   SI_UNIT (.MILLI., .METRE.)
);
#257 = (
   NAMED_UNIT (*)
   SI_UNIT ($, .STERADIAN.)
   SOLID_ANGLE_UNIT ()
);
#258 = (
   NAMED_UNIT (*)
   SI_UNIT ($, .RADIAN.)
   PLANE_ANGLE_UNIT ()
);
#259 = UNCERTAINTY_MEASURE_WITH_UNIT (LENGTH_MEASURE(0.001), #256, 'DISTANCE_ACCURACY_VALUE', '');
#260 = (
   GEOMETRIC_REPRESENTATION_CONTEXT (3)
   GLOBAL_UNCERTAINTY_ASSIGNED_CONTEXT ((#259))
   GLOBAL_UNIT_ASSIGNED_CONTEXT ((#256, #257, #258))
   REPRESENTATION_CONTEXT ('', '3D')
);
#261 = SHAPE_REPRESENTATION ('', (), #260);
#262 = APPLICATION_CONTEXT ('configuration controlled 3D designs of mechanical parts and assemblies');
#263 = APPLICATION_PROTOCOL_DEFINITION ('International Standard', 'config_control_design', 1997, #262);
#264 = MECHANICAL_CONTEXT ('', #262, 'mechanical');
#265 = PRODUCT ('', '', '', (#264));
#266 = PERSON_AND_ORGANIZATION_ROLE ('design_owner');
#267 = PERSON ('', '', $, $, $, $);
#268 = ORGANIZATION ($, '', '');
#269 = PERSON_AND_ORGANIZATION (#267, #268);
#270 = CC_DESIGN_PERSON_AND_ORGANIZATION_ASSIGNMENT (#269, #266, (#265));
#271 = PRODUCT_RELATED_PRODUCT_CATEGORY ('detail', $, (#265));
#272 = PRODUCT_DEFINITION_FORMATION_WITH_SPECIFIED_SOURCE ('', '', #265, .NOT_KNOWN.);
#273 = APPROVAL_STATUS ('approved');
#274 = APPROVAL (#273, '');
#275 = CALENDAR_DATE (2020, 8, 7);
#276 = COORDINATED_UNIVERSAL_TIME_OFFSET (0, $, .AHEAD.);
#277 = LOCAL_TIME (13, 56, 38., #276);
#278 = DATE_AND_TIME (#275, #277);
#279 = APPROVAL_DATE_TIME (#278, #274);
#280 = APPROVAL_ROLE ('');
#281 = PERSON ('', '', $, $, $, $);
#282 = ORGANIZATION ($, '', '');
#283 = PERSON_AND_ORGANIZATION (#281, #282);
#284 = APPROVAL_PERSON_ORGANIZATION (#283, #274, #280);
#285 = CC_DESIGN_APPROVAL (#274, (#272));
#286 = PERSON_AND_ORGANIZATION_ROLE ('creator');
#287 = PERSON ('', '', $, $, $, $);
#288 = ORGANIZATION ($, '', '');
#289 = PERSON_AND_ORGANIZATION (#287, #288);
#290 = CC_DESIGN_PERSON_AND_ORGANIZATION_ASSIGNMENT (#289, #286, (#272));
#291 = PERSON_AND_ORGANIZATION_ROLE ('part_supplier');
#292 = PERSON ('', '', $, $, $, $);
#293 = ORGANIZATION ($, '', '');
#294 = PERSON_AND_ORGANIZATION (#292, #293);
#295 = CC_DESIGN_PERSON_AND_ORGANIZATION_ASSIGNMENT (#294, #291, (#272));
#296 = SECURITY_CLASSIFICATION_LEVEL ('unclassified');
#297 = SECURITY_CLASSIFICATION ('', '', #296);
#298 = APPROVAL_STATUS ('approved');
#299 = APPROVAL (#298, '');
#300 = CALENDAR_DATE (2020, 8, 7);
#301 = COORDINATED_UNIVERSAL_TIME_OFFSET (0, $, .AHEAD.);
#302 = LOCAL_TIME (13, 56, 38., #301);
#303 = DATE_AND_TIME (#300, #302);
#304 = APPROVAL_DATE_TIME (#303, #299);
#305 = APPROVAL_ROLE ('');
#306 = PERSON ('', '', $, $, $, $);
#307 = ORGANIZATION ($, '', '');
#308 = PERSON_AND_ORGANIZATION (#306, #307);
#309 = APPROVAL_PERSON_ORGANIZATION (#308, #299, #305);
#310 = CC_DESIGN_APPROVAL (#299, (#297));
#311 = DATE_TIME_ROLE ('classification_date');
#312 = CALENDAR_DATE (2020, 8, 7);
#313 = COORDINATED_UNIVERSAL_TIME_OFFSET (0, $, .AHEAD.);
#314 = LOCAL_TIME (13, 56, 38., #313);
#315 = DATE_AND_TIME (#312, #314);
#316 = CC_DESIGN_DATE_AND_TIME_ASSIGNMENT (#315, #311, (#297));
#317 = PERSON_AND_ORGANIZATION_ROLE ('classification_officer');
#318 = PERSON ('', '', $, $, $, $);
#319 = ORGANIZATION ($, '', '');
#320 = PERSON_AND_ORGANIZATION (#318, #319);
#321 = CC_DESIGN_PERSON_AND_ORGANIZATION_ASSIGNMENT (#320, #317, (#297));
#322 = CC_DESIGN_SECURITY_CLASSIFICATION (#297, (#272));
#323 = DESIGN_CONTEXT ('', #262, 'design');
#324 = PRODUCT_DEFINITION ('', '', #272, #323);
#325 = APPROVAL_STATUS ('approved');
#326 = APPROVAL (#325, '');
#327 = CALENDAR_DATE (2020, 8, 7);
#328 = COORDINATED_UNIVERSAL_TIME_OFFSET (0, $, .AHEAD.);
#329 = LOCAL_TIME (13, 56, 38., #328);
#330 = DATE_AND_TIME (#327, #329);
#331 = APPROVAL_DATE_TIME (#330, #326);
#332 = APPROVAL_ROLE ('');
#333 = PERSON ('', '', $, $, $, $);
#334 = ORGANIZATION ($, '', '');
#335 = PERSON_AND_ORGANIZATION (#333, #334);
#336 = APPROVAL_PERSON_ORGANIZATION (#335, #326, #332);
#337 = CC_DESIGN_APPROVAL (#326, (#324));
#338 = DATE_TIME_ROLE ('creation_date');
#339 = CALENDAR_DATE (2020, 8, 7);
#340 = COORDINATED_UNIVERSAL_TIME_OFFSET (0, $, .AHEAD.);
#341 = LOCAL_TIME (13, 56, 38., #340);
#342 = DATE_AND_TIME (#339, #341);
#343 = CC_DESIGN_DATE_AND_TIME_ASSIGNMENT (#342, #338, (#324));
#344 = PERSON_AND_ORGANIZATION_ROLE ('creator');
#345 = PERSON ('', '', $, $, $, $);
#346 = ORGANIZATION ($, '', '');
#347 = PERSON_AND_ORGANIZATION (#345, #346);
#348 = CC_DESIGN_PERSON_AND_ORGANIZATION_ASSIGNMENT (#347, #344, (#324));
#349 = PRODUCT_DEFINITION_SHAPE ('', '', #324);
#350 = SHAPE_DEFINITION_REPRESENTATION (#349, #261);
#351 = SHAPE_REPRESENTATION_RELATIONSHIP ('', '', #261, #352);
#352 = ADVANCED_BREP_SHAPE_REPRESENTATION ('', (#255), #260);
ENDSEC;
END-ISO-10303-21;
