ISO-10303-21;
HEADER;
FILE_DESCRIPTION ((), '1');
FILE_NAME ('D:\\Documents\\Mark Dainty\\V5LCB Range\\V5LCB 1203-0_5RBW-CT.STP', '2020-04-16T16:10:14', ('Unknown'), ('M A Ford Europe'), 'OneCNC-XR7 Mill 3D Expert', 'OneCNC-XR7 Mill 3D Expert', '');
FILE_SCHEMA (('CONFIG_CONTROL_DESIGN'));
ENDSEC;

DATA;
#1 = CARTESIAN_POINT ('', (-0.5, 6., -1.46957615897682E-15));
#2 = VERTEX_POINT ('', #1);
#3 = CARTESIAN_POINT ('', (9.86076131526265E-32, 5.5, -1.34711147906209E-15));
#4 = VERTEX_POINT ('', #3);
#5 = CARTESIAN_POINT ('', (-0.5, 6., -1.46957615897682E-15));
#6 = CARTESIAN_POINT ('', (-0.377723889808762, 6., -1.46957615897682E-15));
#7 = CARTESIAN_POINT ('', (-0.205021401527424, 5.93286667337572, -1.45313323626352E-15));
#8 = CARTESIAN_POINT ('', (-0.0379028087976892, 5.7273010169336, -1.40278417162822E-15));
#9 = CARTESIAN_POINT ('', (9.86076131526265E-32, 5.58801006997535, -1.3686677291597E-15));
#10 = CARTESIAN_POINT ('', (9.86076131526265E-32, 5.5, -1.34711147906209E-15));
#11 = B_SPLINE_CURVE_WITH_KNOTS ('', 3, (#5, #6, #7, #8, #9, #10), .UNSPECIFIED., .F., .U., (4, 1, 1, 4), (0., 0.467060336615637, 0.66382629571742, 1.), .UNSPECIFIED.);
#12 = EDGE_CURVE ('', #2, #4, #11, .T.);
#13 = ORIENTED_EDGE ('', *, *, #12, .F.);
#14 = CARTESIAN_POINT ('', (-0.5, 6., -1.46957615897682E-15));
#15 = CARTESIAN_POINT ('', (-0.500000000000001, 6.00000000000001, 24.));
#16 = CARTESIAN_POINT ('', (-0.500000000000002, -18., 12.));
#17 = CARTESIAN_POINT ('', (-0.500000000000001, -18., -12.));
#18 = CARTESIAN_POINT ('', (-0.499999999999999, 5.99999999999999, -24.));
#19 = CARTESIAN_POINT ('', (-0.5, 6., -1.46957615897682E-15));
#20 = (
   BOUNDED_CURVE ()
   B_SPLINE_CURVE (5, (#14, #15, #16, #17, #18, #19), .UNSPECIFIED., .T., .U.)
   B_SPLINE_CURVE_WITH_KNOTS ((6, 6), (0., 1.), .UNSPECIFIED.)
   CURVE ()
   GEOMETRIC_REPRESENTATION_ITEM ()
   RATIONAL_B_SPLINE_CURVE ((5., 1., 1., 1., 1., 5.))
   REPRESENTATION_ITEM ('')
);
#21 = EDGE_CURVE ('', #2, #2, #20, .T.);
#22 = ORIENTED_EDGE ('', *, *, #21, .T.);
#23 = ORIENTED_EDGE ('', *, *, #12, .T.);
#24 = CARTESIAN_POINT ('', (9.86076131526265E-32, 5.5, -1.34711147906209E-15));
#25 = CARTESIAN_POINT ('', (-1.34711147906209E-15, 5.50000000000001, 22.));
#26 = CARTESIAN_POINT ('', (-2.02066721859313E-15, -16.5, 11.));
#27 = CARTESIAN_POINT ('', (-6.73555739531045E-16, -16.5, -11.));
#28 = CARTESIAN_POINT ('', (1.34711147906209E-15, 5.49999999999999, -22.));
#29 = CARTESIAN_POINT ('', (9.86076131526265E-32, 5.5, -1.34711147906209E-15));
#30 = (
   BOUNDED_CURVE ()
   B_SPLINE_CURVE (5, (#24, #25, #26, #27, #28, #29), .UNSPECIFIED., .T., .U.)
   B_SPLINE_CURVE_WITH_KNOTS ((6, 6), (0., 1.), .UNSPECIFIED.)
   CURVE ()
   GEOMETRIC_REPRESENTATION_ITEM ()
   RATIONAL_B_SPLINE_CURVE ((5., 1., 1., 1., 1., 5.))
   REPRESENTATION_ITEM ('')
);
#31 = EDGE_CURVE ('', #4, #4, #30, .T.);
#32 = ORIENTED_EDGE ('', *, *, #31, .F.);
#33 = EDGE_LOOP ('', (#13, #22, #23, #32));
#34 = FACE_OUTER_BOUND ('', #33, .T.);
#35 = CARTESIAN_POINT ('', (-0.5, 6., -1.46957615897682E-15));
#36 = CARTESIAN_POINT ('', (-0.377723889808762, 6., -1.46957615897682E-15));
#37 = CARTESIAN_POINT ('', (-0.205021401527424, 5.93286667337572, -1.45313323626352E-15));
#38 = CARTESIAN_POINT ('', (-0.0379028087976892, 5.7273010169336, -1.40278417162822E-15));
#39 = CARTESIAN_POINT ('', (9.86076131526265E-32, 5.58801006997535, -1.3686677291597E-15));
#40 = CARTESIAN_POINT ('', (9.86076131526265E-32, 5.5, -1.34711147906209E-15));
#41 = CARTESIAN_POINT ('', (-0.500000000000001, 6.00000000000001, 24.));
#42 = CARTESIAN_POINT ('', (-0.377723889808763, 6.00000000000001, 24.));
#43 = CARTESIAN_POINT ('', (-0.205021401527425, 5.93286667337572, 23.7314666935029));
#44 = CARTESIAN_POINT ('', (-0.0379028087976906, 5.7273010169336, 22.9092040677344));
#45 = CARTESIAN_POINT ('', (-1.3686677291597E-15, 5.58801006997536, 22.3520402799014));
#46 = CARTESIAN_POINT ('', (-1.34711147906209E-15, 5.50000000000001, 22.));
#47 = CARTESIAN_POINT ('', (-0.500000000000002, -18., 12.));
#48 = CARTESIAN_POINT ('', (-0.377723889808764, -18., 12.));
#49 = CARTESIAN_POINT ('', (-0.205021401527426, -17.7986000201272, 11.8657333467514));
#50 = CARTESIAN_POINT ('', (-0.0379028087976913, -17.1819030508008, 11.4546020338672));
#51 = CARTESIAN_POINT ('', (-2.05300159373955E-15, -16.764030209926, 11.1760201399507));
#52 = CARTESIAN_POINT ('', (-2.02066721859313E-15, -16.5, 11.));
#53 = CARTESIAN_POINT ('', (-0.500000000000001, -18., -12.));
#54 = CARTESIAN_POINT ('', (-0.377723889808763, -18., -12.));
#55 = CARTESIAN_POINT ('', (-0.205021401527424, -17.7986000201272, -11.8657333467514));
#56 = CARTESIAN_POINT ('', (-0.0379028087976899, -17.1819030508008, -11.4546020338672));
#57 = CARTESIAN_POINT ('', (-6.84333864579849E-16, -16.7640302099261, -11.1760201399507));
#58 = CARTESIAN_POINT ('', (-6.73555739531045E-16, -16.5, -11.));
#59 = CARTESIAN_POINT ('', (-0.499999999999999, 5.99999999999999, -24.));
#60 = CARTESIAN_POINT ('', (-0.37772388980876, 5.99999999999999, -24.));
#61 = CARTESIAN_POINT ('', (-0.205021401527422, 5.93286667337571, -23.7314666935029));
#62 = CARTESIAN_POINT ('', (-0.0379028087976878, 5.72730101693359, -22.9092040677344));
#63 = CARTESIAN_POINT ('', (1.3686677291597E-15, 5.58801006997535, -22.3520402799014));
#64 = CARTESIAN_POINT ('', (1.34711147906209E-15, 5.49999999999999, -22.));
#65 = CARTESIAN_POINT ('', (-0.5, 6., -1.46957615897682E-15));
#66 = CARTESIAN_POINT ('', (-0.377723889808762, 6., -1.46957615897682E-15));
#67 = CARTESIAN_POINT ('', (-0.205021401527424, 5.93286667337572, -1.45313323626352E-15));
#68 = CARTESIAN_POINT ('', (-0.0379028087976892, 5.7273010169336, -1.40278417162822E-15));
#69 = CARTESIAN_POINT ('', (9.86076131526265E-32, 5.58801006997535, -1.3686677291597E-15));
#70 = CARTESIAN_POINT ('', (9.86076131526265E-32, 5.5, -1.34711147906209E-15));
#71 = (
   BOUNDED_SURFACE ()
   B_SPLINE_SURFACE (5, 3, ((#35, #36, #37, #38, #39, #40), (#41, #42, #43, #44, #45, #46), (#47, #48, #49, #50, #51, #52), (#53, #54, #55, #56, #57, #58), (#59, #60, #61, #62, #63, #64), (#65, #66, #67, #68, #69, #70)), .UNSPECIFIED., .T., .F., .U.)
   B_SPLINE_SURFACE_WITH_KNOTS ((6, 6), (4, 1, 1, 4), (0., 1.), (0., 0.467060336615637, 0.66382629571742, 1.), .UNSPECIFIED.)
   SURFACE ()
   GEOMETRIC_REPRESENTATION_ITEM ()
   RATIONAL_B_SPLINE_SURFACE (((5., 5., 5., 5., 5., 5.), (1., 1., 1., 1., 1., 1.), (1., 1., 1., 1., 1., 1.), (1., 1., 1., 1., 1., 1.), (1., 1., 1., 1., 1., 1.), (5., 5., 5., 5., 5., 5.)))
   REPRESENTATION_ITEM ('')
);
#72 = ADVANCED_FACE ('', (#34), #71, .T.);
#73 = CARTESIAN_POINT ('', (-83.75, 6., -1.46957615897682E-15));
#74 = VERTEX_POINT ('', #73);
#75 = CARTESIAN_POINT ('', (-83.75, 6., -1.46957615897682E-15));
#76 = CARTESIAN_POINT ('', (-56., 6., -1.46957615897682E-15));
#77 = CARTESIAN_POINT ('', (-28.25, 6., -1.46957615897682E-15));
#78 = CARTESIAN_POINT ('', (-0.5, 6., -1.46957615897682E-15));
#79 = B_SPLINE_CURVE_WITH_KNOTS ('', 3, (#75, #76, #77, #78), .UNSPECIFIED., .F., .U., (4, 4), (0., 1.), .UNSPECIFIED.);
#80 = EDGE_CURVE ('', #74, #2, #79, .T.);
#81 = ORIENTED_EDGE ('', *, *, #80, .F.);
#82 = CARTESIAN_POINT ('', (-83.75, 6., -1.46957615897682E-15));
#83 = CARTESIAN_POINT ('', (-83.75, 5.99999999999999, 24.));
#84 = CARTESIAN_POINT ('', (-83.75, -18., 12.));
#85 = CARTESIAN_POINT ('', (-83.75, -18., -12.));
#86 = CARTESIAN_POINT ('', (-83.75, 6.00000000000001, -24.));
#87 = CARTESIAN_POINT ('', (-83.75, 6., -1.46957615897682E-15));
#88 = (
   BOUNDED_CURVE ()
   B_SPLINE_CURVE (5, (#82, #83, #84, #85, #86, #87), .UNSPECIFIED., .T., .U.)
   B_SPLINE_CURVE_WITH_KNOTS ((6, 6), (0., 1.), .UNSPECIFIED.)
   CURVE ()
   GEOMETRIC_REPRESENTATION_ITEM ()
   RATIONAL_B_SPLINE_CURVE ((5., 1., 1., 1., 1., 5.))
   REPRESENTATION_ITEM ('')
);
#89 = EDGE_CURVE ('', #74, #74, #88, .T.);
#90 = ORIENTED_EDGE ('', *, *, #89, .T.);
#91 = ORIENTED_EDGE ('', *, *, #80, .T.);
#92 = ORIENTED_EDGE ('', *, *, #21, .F.);
#93 = EDGE_LOOP ('', (#81, #90, #91, #92));
#94 = FACE_OUTER_BOUND ('', #93, .T.);
#95 = CARTESIAN_POINT ('', (-83.75, 6., -1.46957615897682E-15));
#96 = CARTESIAN_POINT ('', (-56., 6., -1.46957615897682E-15));
#97 = CARTESIAN_POINT ('', (-28.25, 6., -1.46957615897682E-15));
#98 = CARTESIAN_POINT ('', (-0.5, 6., -1.46957615897682E-15));
#99 = CARTESIAN_POINT ('', (-83.75, 5.99999999999999, 24.));
#100 = CARTESIAN_POINT ('', (-56., 5.99999999999999, 24.));
#101 = CARTESIAN_POINT ('', (-28.25, 6., 24.));
#102 = CARTESIAN_POINT ('', (-0.500000000000001, 6.00000000000001, 24.));
#103 = CARTESIAN_POINT ('', (-83.75, -18., 12.));
#104 = CARTESIAN_POINT ('', (-56., -18., 12.));
#105 = CARTESIAN_POINT ('', (-28.25, -18., 12.));
#106 = CARTESIAN_POINT ('', (-0.500000000000002, -18., 12.));
#107 = CARTESIAN_POINT ('', (-83.75, -18., -12.));
#108 = CARTESIAN_POINT ('', (-56., -18., -12.));
#109 = CARTESIAN_POINT ('', (-28.25, -18., -12.));
#110 = CARTESIAN_POINT ('', (-0.500000000000001, -18., -12.));
#111 = CARTESIAN_POINT ('', (-83.75, 6.00000000000001, -24.));
#112 = CARTESIAN_POINT ('', (-56., 6.00000000000001, -24.));
#113 = CARTESIAN_POINT ('', (-28.25, 6., -24.));
#114 = CARTESIAN_POINT ('', (-0.499999999999999, 5.99999999999999, -24.));
#115 = CARTESIAN_POINT ('', (-83.75, 6., -1.46957615897682E-15));
#116 = CARTESIAN_POINT ('', (-56., 6., -1.46957615897682E-15));
#117 = CARTESIAN_POINT ('', (-28.25, 6., -1.46957615897682E-15));
#118 = CARTESIAN_POINT ('', (-0.5, 6., -1.46957615897682E-15));
#119 = (
   BOUNDED_SURFACE ()
   B_SPLINE_SURFACE (5, 3, ((#95, #96, #97, #98), (#99, #100, #101, #102), (#103, #104, #105, #106), (#107, #108, #109, #110), (#111, #112, #113, #114), (#115, #116, #117, #118)), .UNSPECIFIED., .T., .F., .U.)
   B_SPLINE_SURFACE_WITH_KNOTS ((6, 6), (4, 4), (0., 1.), (0., 1.), .UNSPECIFIED.)
   SURFACE ()
   GEOMETRIC_REPRESENTATION_ITEM ()
   RATIONAL_B_SPLINE_SURFACE (((5., 5., 5., 5.), (1., 1., 1., 1.), (1., 1., 1., 1.), (1., 1., 1., 1.), (1., 1., 1., 1.), (5., 5., 5., 5.)))
   REPRESENTATION_ITEM ('')
);
#120 = ADVANCED_FACE ('', (#94), #119, .T.);
#121 = CARTESIAN_POINT ('', (-84., 5.75, -1.40834381901946E-15));
#122 = VERTEX_POINT ('', #121);
#123 = CARTESIAN_POINT ('', (-84., 5.75, -1.40834381901946E-15));
#124 = CARTESIAN_POINT ('', (-83.9166666666663, 5.83333333333333, -1.42875459900524E-15));
#125 = CARTESIAN_POINT ('', (-83.8333333333336, 5.91666666666665, -1.44916537899103E-15));
#126 = CARTESIAN_POINT ('', (-83.75, 6., -1.46957615897682E-15));
#127 = B_SPLINE_CURVE_WITH_KNOTS ('', 3, (#123, #124, #125, #126), .UNSPECIFIED., .F., .U., (4, 4), (0., 1.), .UNSPECIFIED.);
#128 = EDGE_CURVE ('', #122, #74, #127, .T.);
#129 = ORIENTED_EDGE ('', *, *, #128, .F.);
#130 = CARTESIAN_POINT ('', (-84., 5.75, -1.40834381901946E-15));
#131 = CARTESIAN_POINT ('', (-84., 5.74999999999998, 23.));
#132 = CARTESIAN_POINT ('', (-84., -17.25, 11.5));
#133 = CARTESIAN_POINT ('', (-84., -17.25, -11.5));
#134 = CARTESIAN_POINT ('', (-84., 5.75000000000002, -23.));
#135 = CARTESIAN_POINT ('', (-84., 5.75, -1.40834381901946E-15));
#136 = (
   BOUNDED_CURVE ()
   B_SPLINE_CURVE (5, (#130, #131, #132, #133, #134, #135), .UNSPECIFIED., .T., .U.)
   B_SPLINE_CURVE_WITH_KNOTS ((6, 6), (0., 1.), .UNSPECIFIED.)
   CURVE ()
   GEOMETRIC_REPRESENTATION_ITEM ()
   RATIONAL_B_SPLINE_CURVE ((5., 1., 1., 1., 1., 5.))
   REPRESENTATION_ITEM ('')
);
#137 = EDGE_CURVE ('', #122, #122, #136, .T.);
#138 = ORIENTED_EDGE ('', *, *, #137, .T.);
#139 = ORIENTED_EDGE ('', *, *, #128, .T.);
#140 = ORIENTED_EDGE ('', *, *, #89, .F.);
#141 = EDGE_LOOP ('', (#129, #138, #139, #140));
#142 = FACE_OUTER_BOUND ('', #141, .T.);
#143 = CARTESIAN_POINT ('', (-84., 5.75, -1.40834381901946E-15));
#144 = CARTESIAN_POINT ('', (-83.9166666666663, 5.83333333333333, -1.42875459900524E-15));
#145 = CARTESIAN_POINT ('', (-83.8333333333336, 5.91666666666665, -1.44916537899103E-15));
#146 = CARTESIAN_POINT ('', (-83.75, 6., -1.46957615897682E-15));
#147 = CARTESIAN_POINT ('', (-84., 5.74999999999998, 23.));
#148 = CARTESIAN_POINT ('', (-83.9166666666663, 5.83333333333332, 23.3333333333333));
#149 = CARTESIAN_POINT ('', (-83.8333333333336, 5.91666666666663, 23.6666666666666));
#150 = CARTESIAN_POINT ('', (-83.75, 5.99999999999999, 24.));
#151 = CARTESIAN_POINT ('', (-84., -17.25, 11.5));
#152 = CARTESIAN_POINT ('', (-83.9166666666663, -17.5, 11.6666666666666));
#153 = CARTESIAN_POINT ('', (-83.8333333333336, -17.7499999999999, 11.8333333333333));
#154 = CARTESIAN_POINT ('', (-83.75, -18., 12.));
#155 = CARTESIAN_POINT ('', (-84., -17.25, -11.5));
#156 = CARTESIAN_POINT ('', (-83.9166666666663, -17.5, -11.6666666666667));
#157 = CARTESIAN_POINT ('', (-83.8333333333336, -17.7499999999999, -11.8333333333333));
#158 = CARTESIAN_POINT ('', (-83.75, -18., -12.));
#159 = CARTESIAN_POINT ('', (-84., 5.75000000000002, -23.));
#160 = CARTESIAN_POINT ('', (-83.9166666666663, 5.83333333333335, -23.3333333333333));
#161 = CARTESIAN_POINT ('', (-83.8333333333336, 5.91666666666666, -23.6666666666666));
#162 = CARTESIAN_POINT ('', (-83.75, 6.00000000000001, -24.));
#163 = CARTESIAN_POINT ('', (-84., 5.75, -1.40834381901946E-15));
#164 = CARTESIAN_POINT ('', (-83.9166666666663, 5.83333333333333, -1.42875459900524E-15));
#165 = CARTESIAN_POINT ('', (-83.8333333333336, 5.91666666666665, -1.44916537899103E-15));
#166 = CARTESIAN_POINT ('', (-83.75, 6., -1.46957615897682E-15));
#167 = (
   BOUNDED_SURFACE ()
   B_SPLINE_SURFACE (5, 3, ((#143, #144, #145, #146), (#147, #148, #149, #150), (#151, #152, #153, #154), (#155, #156, #157, #158), (#159, #160, #161, #162), (#163, #164, #165, #166)), .UNSPECIFIED., .T., .F., .U.)
   B_SPLINE_SURFACE_WITH_KNOTS ((6, 6), (4, 4), (0., 1.), (0., 1.), .UNSPECIFIED.)
   SURFACE ()
   GEOMETRIC_REPRESENTATION_ITEM ()
   RATIONAL_B_SPLINE_SURFACE (((5., 5., 5., 5.), (1., 1., 1., 1.), (1., 1., 1., 1.), (1., 1., 1., 1.), (1., 1., 1., 1.), (5., 5., 5., 5.)))
   REPRESENTATION_ITEM ('')
);
#168 = ADVANCED_FACE ('', (#142), #167, .T.);
#169 = CARTESIAN_POINT ('', (-84., 5.14351655641888E-15, -5.14351655641888E-15));
#170 = VERTEX_POINT ('', #169);
#171 = CARTESIAN_POINT ('', (-84., 5.14351655641888E-15, -5.14351655641888E-15));
#172 = CARTESIAN_POINT ('', (-84., 5.75, -1.40834381901946E-15));
#173 = B_SPLINE_CURVE_WITH_KNOTS ('', 1, (#171, #172), .UNSPECIFIED., .F., .U., (2, 2), (0., 1.), .UNSPECIFIED.);
#174 = EDGE_CURVE ('', #170, #122, #173, .T.);
#175 = ORIENTED_EDGE ('', *, *, #174, .F.);
#176 = ORIENTED_EDGE ('', *, *, #174, .T.);
#177 = ORIENTED_EDGE ('', *, *, #137, .F.);
#178 = EDGE_LOOP ('', (#175, #176, #177));
#179 = FACE_OUTER_BOUND ('', #178, .T.);
#180 = CARTESIAN_POINT ('', (-84., 5.14351655641888E-15, -5.14351655641888E-15));
#181 = CARTESIAN_POINT ('', (-84., 5.75, -1.40834381901946E-15));
#182 = CARTESIAN_POINT ('', (-84., 5.14351655641888E-15, -5.14351655641888E-15));
#183 = CARTESIAN_POINT ('', (-84., 5.74999999999998, 23.));
#184 = CARTESIAN_POINT ('', (-84., 5.14351655641888E-15, -5.14351655641888E-15));
#185 = CARTESIAN_POINT ('', (-84., -17.25, 11.5));
#186 = CARTESIAN_POINT ('', (-84., 5.14351655641888E-15, -5.14351655641888E-15));
#187 = CARTESIAN_POINT ('', (-84., -17.25, -11.5));
#188 = CARTESIAN_POINT ('', (-84., 5.14351655641888E-15, -5.14351655641888E-15));
#189 = CARTESIAN_POINT ('', (-84., 5.75000000000002, -23.));
#190 = CARTESIAN_POINT ('', (-84., 5.14351655641888E-15, -5.14351655641888E-15));
#191 = CARTESIAN_POINT ('', (-84., 5.75, -1.40834381901946E-15));
#192 = (
   BOUNDED_SURFACE ()
   B_SPLINE_SURFACE (5, 1, ((#180, #181), (#182, #183), (#184, #185), (#186, #187), (#188, #189), (#190, #191)), .UNSPECIFIED., .T., .F., .U.)
   B_SPLINE_SURFACE_WITH_KNOTS ((6, 6), (2, 2), (0., 1.), (0., 1.), .UNSPECIFIED.)
   SURFACE ()
   GEOMETRIC_REPRESENTATION_ITEM ()
   RATIONAL_B_SPLINE_SURFACE (((5., 5.), (1., 1.), (1., 1.), (1., 1.), (1., 1.), (5., 5.)))
   REPRESENTATION_ITEM ('')
);
#193 = ADVANCED_FACE ('', (#179), #192, .T.);
#194 = CARTESIAN_POINT ('', (-3.36777869765522E-16, 2.06216970116005E-32, -2.06216970116005E-32));
#195 = VERTEX_POINT ('', #194);
#196 = CARTESIAN_POINT ('', (9.86076131526265E-32, 5.5, -1.34711147906209E-15));
#197 = CARTESIAN_POINT ('', (-3.36777869765522E-16, 2.06216970116005E-32, -2.06216970116005E-32));
#198 = B_SPLINE_CURVE_WITH_KNOTS ('', 1, (#196, #197), .UNSPECIFIED., .F., .U., (2, 2), (0., 1.), .UNSPECIFIED.);
#199 = EDGE_CURVE ('', #4, #195, #198, .T.);
#200 = ORIENTED_EDGE ('', *, *, #199, .F.);
#201 = ORIENTED_EDGE ('', *, *, #31, .T.);
#202 = ORIENTED_EDGE ('', *, *, #199, .T.);
#203 = EDGE_LOOP ('', (#200, #201, #202));
#204 = FACE_OUTER_BOUND ('', #203, .T.);
#205 = CARTESIAN_POINT ('', (9.86076131526265E-32, 5.5, -1.34711147906209E-15));
#206 = CARTESIAN_POINT ('', (-3.36777869765522E-16, 2.06216970116005E-32, -2.06216970116005E-32));
#207 = CARTESIAN_POINT ('', (-1.34711147906209E-15, 5.50000000000001, 22.));
#208 = CARTESIAN_POINT ('', (-3.36777869765522E-16, 2.06216970116005E-32, -2.06216970116005E-32));
#209 = CARTESIAN_POINT ('', (-2.02066721859313E-15, -16.5, 11.));
#210 = CARTESIAN_POINT ('', (-3.36777869765522E-16, 2.06216970116005E-32, -2.06216970116005E-32));
#211 = CARTESIAN_POINT ('', (-6.73555739531045E-16, -16.5, -11.));
#212 = CARTESIAN_POINT ('', (-3.36777869765522E-16, 2.06216970116005E-32, -2.06216970116005E-32));
#213 = CARTESIAN_POINT ('', (1.34711147906209E-15, 5.49999999999999, -22.));
#214 = CARTESIAN_POINT ('', (-3.36777869765522E-16, 2.06216970116005E-32, -2.06216970116005E-32));
#215 = CARTESIAN_POINT ('', (9.86076131526265E-32, 5.5, -1.34711147906209E-15));
#216 = CARTESIAN_POINT ('', (-3.36777869765522E-16, 2.06216970116005E-32, -2.06216970116005E-32));
#217 = (
   BOUNDED_SURFACE ()
   B_SPLINE_SURFACE (5, 1, ((#205, #206), (#207, #208), (#209, #210), (#211, #212), (#213, #214), (#215, #216)), .UNSPECIFIED., .T., .F., .U.)
   B_SPLINE_SURFACE_WITH_KNOTS ((6, 6), (2, 2), (0., 1.), (0., 1.), .UNSPECIFIED.)
   SURFACE ()
   GEOMETRIC_REPRESENTATION_ITEM ()
   RATIONAL_B_SPLINE_SURFACE (((5., 5.), (1., 1.), (1., 1.), (1., 1.), (1., 1.), (5., 5.)))
   REPRESENTATION_ITEM ('')
);
#218 = ADVANCED_FACE ('', (#204), #217, .T.);
#219 = CLOSED_SHELL ('', (#72, #120, #168, #193, #218));
#220 = MANIFOLD_SOLID_BREP ('', #219);
#221 = (
   LENGTH_UNIT ()
   NAMED_UNIT (*)
   SI_UNIT (.MILLI., .METRE.)
);
#222 = (
   NAMED_UNIT (*)
   SI_UNIT ($, .STERADIAN.)
   SOLID_ANGLE_UNIT ()
);
#223 = (
   NAMED_UNIT (*)
   SI_UNIT ($, .RADIAN.)
   PLANE_ANGLE_UNIT ()
);
#224 = UNCERTAINTY_MEASURE_WITH_UNIT (LENGTH_MEASURE(0.001), #221, 'DISTANCE_ACCURACY_VALUE', '');
#225 = (
   GEOMETRIC_REPRESENTATION_CONTEXT (3)
   GLOBAL_UNCERTAINTY_ASSIGNED_CONTEXT ((#224))
   GLOBAL_UNIT_ASSIGNED_CONTEXT ((#221, #222, #223))
   REPRESENTATION_CONTEXT ('', '3D')
);
#226 = SHAPE_REPRESENTATION ('', (), #225);
#227 = APPLICATION_CONTEXT ('configuration controlled 3D designs of mechanical parts and assemblies');
#228 = APPLICATION_PROTOCOL_DEFINITION ('International Standard', 'config_control_design', 1997, #227);
#229 = MECHANICAL_CONTEXT ('', #227, 'mechanical');
#230 = PRODUCT ('', '', '', (#229));
#231 = PERSON_AND_ORGANIZATION_ROLE ('design_owner');
#232 = PERSON ('', '', $, $, $, $);
#233 = ORGANIZATION ($, '', '');
#234 = PERSON_AND_ORGANIZATION (#232, #233);
#235 = CC_DESIGN_PERSON_AND_ORGANIZATION_ASSIGNMENT (#234, #231, (#230));
#236 = PRODUCT_RELATED_PRODUCT_CATEGORY ('detail', $, (#230));
#237 = PRODUCT_DEFINITION_FORMATION_WITH_SPECIFIED_SOURCE ('', '', #230, .NOT_KNOWN.);
#238 = APPROVAL_STATUS ('approved');
#239 = APPROVAL (#238, '');
#240 = CALENDAR_DATE (2020, 16, 4);
#241 = COORDINATED_UNIVERSAL_TIME_OFFSET (0, $, .AHEAD.);
#242 = LOCAL_TIME (16, 10, 14., #241);
#243 = DATE_AND_TIME (#240, #242);
#244 = APPROVAL_DATE_TIME (#243, #239);
#245 = APPROVAL_ROLE ('');
#246 = PERSON ('', '', $, $, $, $);
#247 = ORGANIZATION ($, '', '');
#248 = PERSON_AND_ORGANIZATION (#246, #247);
#249 = APPROVAL_PERSON_ORGANIZATION (#248, #239, #245);
#250 = CC_DESIGN_APPROVAL (#239, (#237));
#251 = PERSON_AND_ORGANIZATION_ROLE ('creator');
#252 = PERSON ('', '', $, $, $, $);
#253 = ORGANIZATION ($, '', '');
#254 = PERSON_AND_ORGANIZATION (#252, #253);
#255 = CC_DESIGN_PERSON_AND_ORGANIZATION_ASSIGNMENT (#254, #251, (#237));
#256 = PERSON_AND_ORGANIZATION_ROLE ('part_supplier');
#257 = PERSON ('', '', $, $, $, $);
#258 = ORGANIZATION ($, '', '');
#259 = PERSON_AND_ORGANIZATION (#257, #258);
#260 = CC_DESIGN_PERSON_AND_ORGANIZATION_ASSIGNMENT (#259, #256, (#237));
#261 = SECURITY_CLASSIFICATION_LEVEL ('unclassified');
#262 = SECURITY_CLASSIFICATION ('', '', #261);
#263 = APPROVAL_STATUS ('approved');
#264 = APPROVAL (#263, '');
#265 = CALENDAR_DATE (2020, 16, 4);
#266 = COORDINATED_UNIVERSAL_TIME_OFFSET (0, $, .AHEAD.);
#267 = LOCAL_TIME (16, 10, 14., #266);
#268 = DATE_AND_TIME (#265, #267);
#269 = APPROVAL_DATE_TIME (#268, #264);
#270 = APPROVAL_ROLE ('');
#271 = PERSON ('', '', $, $, $, $);
#272 = ORGANIZATION ($, '', '');
#273 = PERSON_AND_ORGANIZATION (#271, #272);
#274 = APPROVAL_PERSON_ORGANIZATION (#273, #264, #270);
#275 = CC_DESIGN_APPROVAL (#264, (#262));
#276 = DATE_TIME_ROLE ('classification_date');
#277 = CALENDAR_DATE (2020, 16, 4);
#278 = COORDINATED_UNIVERSAL_TIME_OFFSET (0, $, .AHEAD.);
#279 = LOCAL_TIME (16, 10, 14., #278);
#280 = DATE_AND_TIME (#277, #279);
#281 = CC_DESIGN_DATE_AND_TIME_ASSIGNMENT (#280, #276, (#262));
#282 = PERSON_AND_ORGANIZATION_ROLE ('classification_officer');
#283 = PERSON ('', '', $, $, $, $);
#284 = ORGANIZATION ($, '', '');
#285 = PERSON_AND_ORGANIZATION (#283, #284);
#286 = CC_DESIGN_PERSON_AND_ORGANIZATION_ASSIGNMENT (#285, #282, (#262));
#287 = CC_DESIGN_SECURITY_CLASSIFICATION (#262, (#237));
#288 = DESIGN_CONTEXT ('', #227, 'design');
#289 = PRODUCT_DEFINITION ('', '', #237, #288);
#290 = APPROVAL_STATUS ('approved');
#291 = APPROVAL (#290, '');
#292 = CALENDAR_DATE (2020, 16, 4);
#293 = COORDINATED_UNIVERSAL_TIME_OFFSET (0, $, .AHEAD.);
#294 = LOCAL_TIME (16, 10, 14., #293);
#295 = DATE_AND_TIME (#292, #294);
#296 = APPROVAL_DATE_TIME (#295, #291);
#297 = APPROVAL_ROLE ('');
#298 = PERSON ('', '', $, $, $, $);
#299 = ORGANIZATION ($, '', '');
#300 = PERSON_AND_ORGANIZATION (#298, #299);
#301 = APPROVAL_PERSON_ORGANIZATION (#300, #291, #297);
#302 = CC_DESIGN_APPROVAL (#291, (#289));
#303 = DATE_TIME_ROLE ('creation_date');
#304 = CALENDAR_DATE (2020, 16, 4);
#305 = COORDINATED_UNIVERSAL_TIME_OFFSET (0, $, .AHEAD.);
#306 = LOCAL_TIME (16, 10, 14., #305);
#307 = DATE_AND_TIME (#304, #306);
#308 = CC_DESIGN_DATE_AND_TIME_ASSIGNMENT (#307, #303, (#289));
#309 = PERSON_AND_ORGANIZATION_ROLE ('creator');
#310 = PERSON ('', '', $, $, $, $);
#311 = ORGANIZATION ($, '', '');
#312 = PERSON_AND_ORGANIZATION (#310, #311);
#313 = CC_DESIGN_PERSON_AND_ORGANIZATION_ASSIGNMENT (#312, #309, (#289));
#314 = PRODUCT_DEFINITION_SHAPE ('', '', #289);
#315 = SHAPE_DEFINITION_REPRESENTATION (#314, #226);
#316 = SHAPE_REPRESENTATION_RELATIONSHIP ('', '', #226, #317);
#317 = ADVANCED_BREP_SHAPE_REPRESENTATION ('', (#220), #225);
ENDSEC;
END-ISO-10303-21;
